PrimaNota.ru - самый крупный в мире бесплатный архив песенных текстов, аккордов, табулатур и нот


Von Benzo - Bad Father Bad Son - аккорды и текст, таба, видео

Регистрация Запомнить меня
Войти через:  Facebook Google Twitter Vk Yandex Mail.ru

Von Benzo - Bad Father Bad Son - аккорды и текст, таба, видео

Печатать
Просмотров: 422
Уроки эстрадного вокала в Санкт-Петербурге
Bad Father Bad Son
Von Benzo
-------------------------------------------------------------------------------
                             Bad Father, Bad Son - Von Benzo
-------------------------------------------------------------------------------
Tabbed by: Creptazoid
Email: creptazoid@hotmail.com

Tuning: Half-Step Down


This tab is the only one so far on the web for this song, and the same goes
for the lyrics. It's my first tab, so give me some feedback if there's any
mistakes.


Chords used:
[Am] x02210
[C?] x355x0
[D]  xx0232
[G]  320003
[C]  x30210

-------------------------------------------------------------------------------

  Intro: [Am][C?][D][G]
  Verse: [Am][C?][D][G]
  Chorus: [C?][Am][G][Am][C]
  Solo: [Am][C?][D][G]

  There's a small bridge between the Chorus and the Verse which goes like
  this
   
e|--0---0---0---0--------------------------------------------------------|
B|--1---0---3---1--------------------------------------------------------|
G|--2---2---2---2--------------------------------------------------------|
D|--2---2---2---2--------------------------------------------------------|
A|--0---0---0---0--------------------------------------------------------|
E|--x---x---x---x--------------------------------------------------------|


Verse:

  Am C?        D  G
  No fire now, No smoke

  Am     C?          D           G
  Bloody fingers and I'm feeling soaked

  Am  C?          D   G
  Bad father gets Bad son

  Am  C?         D   G
  Bad everything Bad no one


Chorus:

       C?         Am       
  'Cuz I need the fire

      G          Am
  And I need the smoke

     C?        Am   
  My face in a smirk

       G         Am
  'Cuz life is a joke

      C?           Am
  The sun seems to shine

     G          Am
  On everyone I know

     C
  So why am I in the shadows
        Am
  Cuz I choke


Verse:

  Life takes love
  Breaks almost everyone
  I've tasted the color of sunshine
  Lives will destroy
  Kill all the joy
  I'm sorry but
  I was just a boy

Chorus:

  And I need the fire
  And I need the smoke
  My face in a smirk
  'Cuz life is a joke
  The sun seems to shine
  On everyone I know
  So why am I in the shadows
  'Cuz I'm a joke

Solo: 

  No fire now
  Life takes somethin' away
  Bloody fingers yet
  I have nothin' to say
  No diving gray?
  Will take the pain away
  Hope I make it clear
  Hope I get free some day

Chorus:

  'Cuz I need the fire
  And I need the smoke
  My face in a smirk
  'Cuz life is a joke
  The sun seems to shine
  On everyone I know
  So why am I in the shadows
  Cuz I choke
Добавлено: 20.07.2012
Вам также может быть интересно:
Другие материалы по этой песне:
  • Аккорды и текст

Страница создана 29.06.2012
http://primanota.ru/von-benzo/bad-father-bad-son-chords.htm
Привет, Гость.
Предлагаем пройти революционный курс по гитаре.
Подарок от PrimaNota.Ru, забирай!