PrimaNota.ru - самый крупный в мире бесплатный архив песенных текстов, аккордов, табулатур и нот


Vomitory - Forty Seconds Bloodbath - бас-таба, видео

Регистрация Запомнить меня
Войти через:  Facebook Google Twitter Vk Yandex Mail.ru

Vomitory - Forty Seconds Bloodbath - бас-таба, видео

Печатать
Просмотров: 93
Уроки эстрадного вокала в Санкт-Петербурге
--------------------------------------------------------------------------------------
                        Forty Seconds Bloodbath - Vomitory
--------------------------------------------------------------------------------------
Tabbed by: Mathularan
E-mail: Mathularan@ovi.com

Tuning:D-G-C-F(Whole-step down)

Riff1:
F|-------------|--------------------------------------|-----|
C|-6--6--3-5-3-|--------------------------------------|-----|
G|-------------|-----1-----3-4-------1-----5-4--------|-----|
D|-------------|-0-0---0-0-----00000---0-0-----000000-|-4-3-|

Riff2:
F|-------------------------|--------------------------------------|
C|---2----2-1--------------|-22222253222222---211111111-----------|
G|------3------3-3-3-------|----------------3-----------3333------|
D|-0-----------------4-4-4-|---------------------------------4444-|

Riff3:
F|---------------------------|
C|---------------------------|
G|---------------------------|
D|-0000000030034000000003431-|

Riff4:
F|------------------------|-------------|
C|------------------------|-------------|
G|--------------222222222-|-------------|
D|-444444441111-----------|-3-3-3-1-3-1-|

Riff5:
F|-----------------|----------|------------------|------------------------------------|
C|-----------------|----------|------------------|------------------------------------|
G|---------------1-|----------|------------------|-----5--------5/12--11-11-11-8-10-8-|
D|-3-0-1-4-3-0-3---|-00000000-|-0000000022223333-|-1/4-----4-4------------------------|


Solo Groove:
F|-----------------------------------------|-------------|
C|-22222222111111111-----------------------|-------------|
G|-------------------333333332222----------|-2-----1-----|
D|--------------------------------11110000-|---3-2---2-1-|


How it ends:
F|---------------------------------------------|
C|-22222253222222---211111111------------------|
G|----------------3----------------------------|
D|----------------------------3-3-3-1-3-1-0--0-|

listen to the song and pay attention to the rythem, all comments are welcome.
There will be more on the way, so constructive comments means ill be tabbing more Vomitory!
Добавлено: 10.06.2013
Другие материалы по этой песне:
  • Аккорды и текст

Страница создана 10.06.2013
http://primanota.ru/vomitory/forty-seconds-bloodbath-chords.htm
Привет, Гость.
Предлагаем пройти революционный курс по гитаре.
Подарок от PrimaNota.Ru, забирай!