PrimaNota.ru - самый крупный в мире бесплатный архив песенных текстов, аккордов, табулатур и нот


Vomitory - Eternal Trail Of Corpses - текст песни, таба, видео

Регистрация Запомнить меня
Войти через:  Facebook Google Twitter Vk Yandex Mail.ru

Vomitory - Eternal Trail Of Corpses - текст песни, таба, видео

Печатать
Просмотров: 90
Vomitory - Eternal Trail Of Corpses
from the album "Terrorize Brutalize Sodomize" 
codybaresich@hotmail.com

D Standard Tuning

|-----------|
|-----------|
|-----------|
|-9-10-8----|
|-9-10-8----|
|-7--8-6----|


|--------------------------------------------------------------------|
|--------------------------------------------------------------------|
|-----------------------------6-------------------------------6------|
|-7-7-7-7-7-7-7-8-7-7-7-7-8-4-6-8-7-7-7-7-7-7-7-8-7-7-7-7-8-4-6-8----|
|-7-7-7-7-7-7-7-8-7-7-7-7-8-4-4-8-7-7-7-7-7-7-7-8-7-7-7-7-8-4-4-8----|
|-5-5-5-5-5-5-5-6-5-5-5-5-6-2-4-6-5-5-5-5-5-5-5-6-5-5-5-5-6-2-4-6----|


|----------------------------------------------------------------------|
|----------------------------------------------------------------------|
|-5-5-5-5-5-5-5-6-------------6----------------------------------------|
|-5-5-5-5-5-5-5-6-4-4-4-4-8-8-6-8-----------------7-7-7-7-----9-10-8---|
|-3-3-3-3-3-3-3-4-4-4-4-4-8-8-4-8---------6-6-6-6---------6-6-9-10-8---|
|-3-3-3-3-3-3-3-4-2-2-2-2-6-6-4-6-5-5-5-5---------------------7--8-6---|


|--------------------------------------------------------------------|
|--------------------------------------------------------------------|
|--------------------------------------------------------------------|
|---------1-0-2-2-------------------------1-0-2-2--------------------|
|---------1-0-2-2-------------------------1-0-2-2-3-3-----2-2-1-1----|
|-0-0-0-0---------0-0-1-3-0-0-1-3-0-0-0-0-------------4-4------------|


|---------------------------------|-----------------------------------|
|---------------------------------|-----------------------------------|
|---------------------------------|-----------------------------------|
|---------1-0-2-2-----------------|---------1-0-2-2---------9-10-8----|
|---------1-0-2-2-----------------|---------1-0-2-2-3-3-----9-10-8----|
|-0-0-0-0---------0-0-1-3-0-0-1-3-|-0-0-0-0-------------4-4-7--8-6----|


|---------------------------------|-----------------|------------------|
|---------------------------------|-----------------|------------------|
|---------------------------------|-----------------|------------------|
|---------------------------------|-----------------|------------------|
|-----4---4-5-5-------3---3-4-3---|-----4---4-5-5---|-----3---3-4-3----|
|-2-2---2-------2-1-1---1-------1-|-2-2---2-------2-|-1-1---1-------1--|


|-------------------------------------|------------------|---------------------|
|-------------------------------------|------------------|---------------------|
|-----4-3-7-6-10-7-----7-6-10-9-13-12-|-----4-3-7-6-10-7-|-----7-6-10-9-13-12--|
|-------------------------------------|------------------|---------------------|
|-2-2-2-1-5-4--8-5-2-2-5-4--8-7-11-10-|-2-2-2-1-5-4--8-5-|-2-2-5-4--8-7-11-10--|
|-0-0--------------0-0----------------|-0-0--------------|-0-0-----------------|


|------------------|--------------------|
|------------------|--------------------|
|-----4-3-7-6-10-7-|-----7-6-10-9-13-12-|
|-----4-3-7-6-10-7-|-----7-6-10-9-13-12-|
|-2-2-2-1-5-4--8-5-|-2-2-5-4--8-7-11-10-|
|-0-0-2-1-5-4--8-5-|-0-0-5-4--8-7-11-10-|


|------------------|--------------------|
|------------------|--------------------|
|-----4-3-7-6-10-7-|-----7-6-10-9-13-12-|
|-----4-3-7-6-10-7-|-----5-6-10-9-13-12-|
|-2-2-2-1-5-4--8-5-|-2-2-5-4--8-7-11-10-|
|-0-0-2-1-5-4--8-5-|-0-0-5-4--8-7-11-10-|


|-----------------|-----------------|-----------------|-----------------|
|-----------------|-----------------|-----------------|-----------------|
|-----------------|-----------------|-----------------|-----------------|  
|-----------------|-----------------|-----------------|-----------------| 
|-----7---7-8-8---|-----6---6-7-6---|-----7---7-8-8---|-----6---6-7-6---|
|-5-5---5-------5-|-4-4---4-------4-|-5-5---5-------5-|-4-4---4-------4-|
Добавлено: 03.01.2014
Вам также может быть интересно:
Другие материалы по этой песне:
  • Аккорды и текст

Страница создана 10.08.2013
http://primanota.ru/vomitory/eternal-trail-of-corpses-chords.htm
Привет, Гость.
Предлагаем пройти революционный курс по гитаре.
Подарок от PrimaNota.Ru, забирай!