PrimaNota.ru - самый крупный в мире бесплатный архив песенных текстов, аккордов, табулатур и нот


Vomit Supreme - Versus Love - таба, видео

Регистрация Запомнить меня
Войти через:  Facebook Google Twitter Vk Yandex Mail.ru

Vomit Supreme - Versus Love - таба, видео

Печатать
Просмотров: 98
Official website: http://www.vomitsupreme.com/


Vomit Supreme – Versus Love

Hi! This is my first tab, and a little part of 
the ending is missing.. But here it is!

E-mail: Superher0_@hotmail.com – For response 
and tabs for ending of this song only.. I'm still
trying to figure it out correctly :)
_____________________________________________________________________________


After intro with the drums, lead-guitar plays;

e:|--------14-----------14----------14----------14--|
B:|-----------12-----------12----------12-----------|
G:|--13-13-------13--13-------13-13-------13-13-----|
D:|-------------------------------------------------|
A:|-------------------------------------------------|
E:|-------------------------------------------------|

e:|------9-------9-------9-------9--|
B:|---------------------------------|
G:|--9-9-----9-9-----9-9-----9-9----|
D:|---------------------------------|
A:|---------------------------------|
E:|---------------------------------|

e:|------6-------6------4-------4-------4-------4--|
B:|-----------------------0-------0-------0--------|
G:|--6-6-----6-6----4-4-----4-4-----4-4-----4-4----|
D:|------------------------------------------------|
A:|------------------------------------------------|
E:|------------------------------------------------|

e:|------2-------2-------2-------2------|
B:|--------0-------0-------0------------|
G:|--3-3-----3-3-----3-3-----3-3--------|
D:|-------------------------------------|
A:|-------------------------------------|
E:|-------------------------------------|


(4 times)
____________________________________________________________

Then comes the part with 2 guitars, bass and drums. Remember to 
switch distortion on the rhythm-guitar, and fuzz/overdrive on the 
Lead-guitar.

Lead (x2);

e:|--------14-----------14----------14----------14--|
B:|-----------12-----------12----------12-----------|
G:|--13-13-------13--13-------13-13-------13-13-----|
D:|-------------------------------------------------|
A:|-------------------------------------------------|
E:|-------------------------------------------------|

e:|------7-------7-------7-------7--|
B:|---------------------------------|
G:|--7-7-----7-7-----7-7-----7-7----|
D:|---------------------------------|
A:|---------------------------------|
E:|---------------------------------|

e:|------6-------6------4-------4-------4-------4--|
B:|-----------------------0-------0-------0--------|
G:|--6-6-----6-6----4-4-----4-4-----4-4-----4-4----|
D:|------------------------------------------------|
A:|------------------------------------------------|
E:|------------------------------------------------|





e:|------2-------2-------2-------2------|
B:|--------0-------0-------0------------|
G:|--3-3-----3-3-----3-3-----3-3--------|
D:|-------------------------------------|
A:|-------------------------------------|
E:|-------------------------------------|


Rhythm (1/2);

e:|-------------------------------------|
B:|-------------------------------------|
G:|-------------------------------------|
D:|-6-6-6-6-6-6-6-6-6-6-6-6-6-6-6-6-----|
A:|-6-6-6-6-6-6-6-6-6-6-6-6-6-6-6-6-----|
E:|-4-4-4-4-4-4-4-4-4-4-4-4-4-4-4-4-----|  = x 16


e:|-------------------------------------|
B:|-------------------------------------|
G:|-------------------------------------|
D:|-5-5-5-5-5-5-5-5-5-5-5-5-5-5-5-5-----|
A:|-5-5-5-5-5-5-5-5-5-5-5-5-5-5-5-5-----|
E:|-3-3-3-3-3-3-3-3-3-3-3-3-3-3-3-3-----|  = x 16


e:|-----------------------------------------------------|
B:|-----------------------------------------------------|
G:|-----------------------------------------------------|
D:|-4-4-4-4-4-4-4-4-2-2-2-2-2-2-2-2-2-2-2-2-2-2-2-2-----|
A:|-4-4-4-4-4-4-4-4-2-2-2-2-2-2-2-2-2-2-2-2-2-2-2-2-----|
E:|-2-2-2-2-2-2-2-2-0-0-0-0-0-0-0-0-0-0-0-0-0-0-0-0-----|  = Gb 8, E 16


e:|-------------------------------------|
B:|-------------------------------------|
G:|-------------------------------------|
D:|-4-4-4-4-4-4-4-4-4-4-4-4-4-4-4-4-----|
A:|-4-4-4-4-4-4-4-4-4-4-4-4-4-4-4-4-----|
E:|-2-2-2-2-2-2-2-2-2-2-2-2-2-2-2-2-----|  = x 16


Rhythm (2/2);

e:|-------------------------------------|
B:|-------------------------------------|
G:|-------------------------------------|
D:|-6-6-6-6-6-6-6-6-6-6-6-6-6-6-6-6-----|
A:|-6-6-6-6-6-6-6-6-6-6-6-6-6-6-6-6-----|
E:|-4-4-4-4-4-4-4-4-4-4-4-4-4-4-4-4-----|  = x 16


e:|-------------------------------------|
B:|-------------------------------------|
G:|-------------------------------------|
D:|-5-5-5-5-5-5-5-5-5-5-5-5-5-5-5-5-----|
A:|-5-5-5-5-5-5-5-5-5-5-5-5-5-5-5-5-----|
E:|-3-3-3-3-3-3-3-3-3-3-3-3-3-3-3-3-----|  = x 16


e:|-----------------------------------------------------|
B:|-----------------------------------------------------|
G:|-4-4-4-4-4-4-4-4-------------------------------------|
D:|-4-4-4-4-4-4-4-4-2-2-2-2-2-2-2-2-2-2-2-2-2-2-2-2-----|
A:|-2-2-2-2-2-2-2-2-2-2-2-2-2-2-2-2-2-2-2-2-2-2-2-2-----|
E:|-----------------0-0-0-0-0-0-0-0-0-0-0-0-0-0-0-0-----|  = Db 8, E 16






e:|------|
B:|------|
G:|------|
D:|-4----|
A:|-4----|
E:|-2----|  = Until chorus have sung “i can't believe i fell in love” 4 times.
Добавлено: 14.05.2012
Другие материалы по этой песне:
  • Аккорды и текст

Страница создана 14.05.2012
http://primanota.ru/vomit-supreme/versus-love-chords.htm
Привет, Гость.
Предлагаем пройти революционный курс по гитаре.
Подарок от PrimaNota.Ru, забирай!