PrimaNota.ru - самый крупный в мире бесплатный архив песенных текстов, аккордов, табулатур и нот


Vomit Remnants - My Blessed Sickness - таба, видео

Регистрация Запомнить меня
Войти через:  Facebook Google Twitter Vk Yandex Mail.ru

Vomit Remnants - My Blessed Sickness - таба, видео

Печатать
Просмотров: 60
VOMIT REMNANTS
"My Blessed Sickness"
from album "Supreme Entity" (1999)


NOTES:
p.m. - palm muting
" - tremolo picking
h - hammer on
p - pull off
~ - vibrato
^ - pinch harmonics

TUNING is C (2 steps down)

[Intro /after bass solo/]
-|-----------------------|
-|-----------------------|
-|-----------------------|
-|---------4-4----3-3----|
-|---------2-2-4--1-1-3--|
-|-------------2------1--|
           . . .  . . .

-|---------------------------------|---------------------------------|
-|---------------------------------|---------------------------------|
-|---------------------------------|---------------------------------|
-|-----2h3-------------2h3-----3h4-|-----2h3-------------2h3---------|
-|-------------5h6-----------------|-------------5h6-------------4h5-|
-|-0-0-----0-0-----0-0-----0-0-----|-0-0-----0-0-----0-0-----0-0-----|
   . .     . .     . .     . .       . .     . .     . .     . .

---------------------------------|---------------------------------|
---------------------------------|---------------------------------|
---------------------------------|---------------------------------|
-----2h3-------------2h3-----3h4-|-----2h3---------------------7---|
-------------5h6-----------------|-------------5h6-9-9-9-9-9-9-5---|
-0-0-----0-0-----0-0-----0-0-----|-0-0-----0-0-----7-7-7-7-7-7-----|
 . .     . .     . .     . .       . .     . .     . . . . . .

[Riff 1 (x2)]
-|---------------------------------|---------------------------------|
-|---------------------------------|---------------------------------|
-|---------------------------------|---------------------------------|
-|-----2h3-------------2h3-----3h4-|-----2h3-------------2h3---------|
-|-------------5h6-----------------|-------------5h6-------------4h5-|
-|-0-0-----0-0-----0-0-----0-0-----|-0-0-----0-0-----0-0-----0-0-----|
   . .     . .     . .     . .       . .     . .     . .     . .

---------------------------------|---------------------------------|
---------------------------------|-------------------5-3-----------|
---------------------------------|-----------------------5-4-2-----|
-----2h3-------------2h3-----3h4-|-----2h3---------------------5-4-|
-------------5h6-----------------|-------------5h6-----------------|
-0-0-----0-0-----0-0-----0-0-----|-0-0-----0-0-----0---------------|
 . .     . .     . .     . .       . .     . .     . . . . . . . .

[Riff 2 (x4)]
-|-----------------------------------------|
-|-----------------------------------------|
-|-----------------------------------------|
-|--------------------------7---6---5---4~-|
-|------------5"8"------------8---7---6----|
-|-6"-5"...-6"-----6"-5"...----------------|
                            . . . . . .

[Riff 3 (x2)]
-|-----------------------------------------|-----------------------------------|
-|-----------------------------------------|-----------------------------------|
-|-----------------------------------------|-----------------------------------|
-|--------------------------7---6---5---4~-|-------------------6---9----5---8--|
-|------------5"8"------------8---7---6----|------------5"8"---4---7----3---6--|
-|-6"-5"...-6"-----6"-5"...----------------|-6"-5"...-6"-----0---0----0---0----|
                            . . . . . .                      .   .    .   .

[Outro]
-|---------------------------------------------------------|
-|---------------------------------------------------------|
-|---------------------------------------------------------|
-|--------------------------7---6---5---4~-----------------|
-|------------5"8"------------8---7---6---------------5"8"-|
-|-6"-5"...-6"-----6"-5"...----------------6"-5"...-6"-----|
 |                          . . . . . .
-|---------------------------------------------------------|
-|---------------------------------------------------------|
-|--------------------------7---6---5---4~-----------------|
-|------------5"8"------------8---7---6---------------5"8"-|
-|-6"-5"...-6"-----6"-5"...----------------6"-5"...-6"-----|
-|---------------------------------------------------------|
                            . . . . . .

[Riff 4a (x2)]
-|-------------------------------------|
-|-------------------------------------|
-|-------------------------------------|
-|---6---9----5---8----6---9----5---8--|
-|---4---7----3---6----4---7----3---6--|
-|-0---0----0---0----0---0----0---0----|
   .   .    .   .    .   .    .   .

[Riff 4b]
-|-------------------------------------|-------------------------------------|
-|-------------------------------------|-------------------------------------|
-|-------------------------------------|-------------------------------------|
-|---6---9----5---8----6---9----5---8--|---6---9----5---8----6---9----5---8--|
-|---4---7----3---6----4---7----3---6--|---4---7----3---6----4---7----3---6--|
-|-0---0----0---0----0---0----0---0----|-0---0----0---0----0---0----0---0----|
 | .   .    .   .    .   .    .   .    | .   .    .   .    .   .    .   .    |
-|-------------------------------------|-------------------------------------|
-|-------------------------------------|-------------------------------------|
-|-------------------------------------|-------------------6"......-5"......-|
-|-------------------------------------|-7"......-6"......-------------------|
-|-7"......-6"......-4"......-3"......-|-------------------------------------|
-|-------------------------------------|-------------------------------------|

[Riff 5 (x3)]
-|--------------------------------------------------|
-|--------------------------------------------------|
-|---------------------------------------------3"..-|
-|--------------------5"..--------------------------|
-|-5--4--5--4--5--4-4------5-5-4--5--4--5--4-4------|
-|-3--2--3--2--3--2-2------3-3-2--3--2--3--2-2------|
   .  .  .  .  .  . .      . . .  .  .  .  . .

--------------------------------------------------|
--------------------------------------------------|
--------------------------------------------------|
--------------------5"..--------------------------|
-5--4--5--4--5--4-4------5-5-4--5--4--5--4-4-2-3--|
-3--2--3--2--3--2-2------3-3-2--3--2--3--2-2-0-1--|
 .  .  .  .  .  . .      . . .  .  .  .  . . .

[Bass outro 1]
-|-----------------------|
-|-----------------------|
-|---------------4/5-7/8-|
-|-66665555555/6---------|

[Riff 6 /under solo/] (x3)
-|-------------------------------------------------|
-|-------------------------------------------------|
-|-------------------------------------------------|
-|-----2h3-------------2h3-----3h4-----------------|
-|-------------5h6----------------------------5"8"-|
-|-0-0-----0-0-----0-0-----0-0-----6"-5"...-6"-----|
   . .     . .     . .     . .

[Outro]
-|---------------------------|
-|---------------------------|
-|---------------------------|
-|-----2h3---------9------7--|
-|-------------5h6-7--9-9-5--|
-|-0-0-----0-0--------7-7----|
   . .     . .        . .

[Riff 7 (x4)]
-|---------------------------------|
-|---------------------------------|
-|---------------------------------|
-|---------------------------------|
-|-4-5-4-4-4-5-4-4-5-5-4-4-2-2-3-3-|
-|-2-3-2-2-2-3-2-2-3-3-2-2-0-0-1-1-|
   . . . . . . . . . . . . . . . .

[Riff 8 (x4)]
-|---------------------------------|
-|---------------------------------|
-|---------------------------------|
-|---------------------------------|
-|-4-5-4---4-5-4---5-5-4-4-2-2-3-3-|
-|-2-3-2---2-3-2---3-3-2-2-0-0-1-1-|
   . .     . .     . . . . . . . .

[Riff 9a (x2)]
-|--------------------------------------------------|-----------------------------|
-|--------------------------------------------------|-----------------------------|
-|---------------------------------------------2"..-|-----------------------------|
-|-------3---------------------------3-----3"..-----|-------3---------------------|
-|-5--4--1--4--2-2-2-2-5-5-5-5-5--4--1--4-----------|-5--4--1--4--5-5-5-5-2-2-2-2-|
-|-3--2-----2--0-0-0-0-3-3-3-3-3--2-----2-----------|-3--2-----2--3-3-3-3-0-0-0-0-|
               . . . . . . . .                                    . . . . . . . .

-----------------------------|
-----------------------------|
-----------------------------|
-------3---------5-5-----6-6-|
-5--4--1--4--7-7-----8-8-----|
-3--2-----2------------------|
             . . . . . . . .

[RIFF 9b = RIFF 9a with bass solos..]

[bass outro 2]
----------------------------------|
-----5-5-----6-6-----7-7------8-8-|
-7-7-----8-8-----9-9-----1010-----|
----------------------------------|

[Ending]
-|---------------------------|---------------------------|
-|---------------------------|-----------------------^---|
-|---------------------------|----------------------[3]--|
-|-6"..---6"..---6"..--------|-6"..---6"..---6"..--------|
-|-----6------6------6-5-8~--|-----6------6------6-5-----|
-|-----4------4------4-3-6~--|-----4------4------4-3-----|
       .      .      . .           .      .      . .

---------------------------|---------------------------|
---------------------------|---------------------------|
---------------------------|---------------------------|
-6"..---6"..---6"..--------|-6"..---6"..---6"..----4~--|
-----6------6------6-5-8~--|-----6------6------6-5-2~--|
-----4------4------4-3-6~--|-----4------4------4-3-----|
     .      .      . .           .      .      . .

---------------------------|---------------------------|
---------------------------|-----------------------^---|
---------------------------|----------------------[3]--|
-6"..---6"..---6"..--------|-6"..---6"..---6"..--------|
-----6------6------6-5-8~--|-----6------6------6-5-----|
-----4------4------4-3-6~--|-----4------4------4-3-----|
     .      .      . .           .      .      . .

--|---------------------------------[x2]-------------------------|--|
--|--------------------------------------------------------------|--|
--|----------------------------------------------------------5h6-|--|
--|-6"..--6"..---6"..--------6"..---6"..---------7-6-----5h6-----|--|
--|-----6------6------6-5-8~-----6------6--7-6-5-----6-7---------|--|
--|-----4------4------4-3-6~-----4------4------------------------|--|
        .      .      . .        .      .

playback slowly......
---------------------------|---------------------------|
---------------------------|-----------------------^---|
---------------------------|----------------------[3]--|
-6"..---6"..---6"..--------|-6"..---6"..---6"..--------|
-----6------6------6-5-8~--|-----6------6------6-5-----|
-----4------4------4-3-6~--|-----4------4------4-3-----|
     .      .      . .           .      .      . .

END OF SONG
Добавлено: 02.11.2013
Вам также может быть интересно:
Другие материалы по этой песне:
  • Аккорды и текст

Страница создана 02.11.2013
http://primanota.ru/vomit-remnants/my-blessed-sickness-chords.htm
Привет, Гость.
Предлагаем пройти революционный курс по гитаре.
Подарок от PrimaNota.Ru, забирай!