PrimaNota.ru - самый крупный в мире бесплатный архив песенных текстов, аккордов, табулатур и нот


Vomit Remnants - Decomposed Of Structure - таба, видео

Регистрация Запомнить меня
Войти через:  Facebook Google Twitter Vk Yandex Mail.ru

Vomit Remnants - Decomposed Of Structure - таба, видео

Печатать
Просмотров: 53
VOMIT REMNANTS
"Decomposed Of Structure"


NOTES:
p.m. - palm muting
" - tremolo picking
h - hammer on
p - pull off
~ - vibrato
^ - pinch harmonics

TUNING is C (2 steps down)

[Riff 1]
-|---------------------------|---------------------------|
-|---------------------------|---------------------------|
-|---------------------------|---------------------------|
-|-0-4-3-0-5"..-0-4-3-0-2"..-|-0-4-3-0-5"..-0-4-3-0-2"..-|
-|-0-4-3-0------0-4-3-0------|-0-4-3-0------0-4-3-0------|
-|---------------------------|---------------------------|
   . . . .      . . . .        . . . .      . . . .

[Outro]
-|-------------------------|-[x2]------------|-[x2]------------|
-|-------------------------|-----------------|-----------------|
-|-------------------------|-----------------|-8---7---8---7---|
-|----6--5-----4-----3-----|-6---5---6---5---|-6-8-5-7-6-8-5-7-|
-|-7--4--3--6--2--5--1--4--|-4-6-3-5-4-6-3-5-|---6---5---6---5-|
-|-5--------4-----3-----2--|---4---3---4---3-|-----------------|
   .  .  .  .  .  .  .  .      .   .   .   .     .   .   .   .

[Riff 2 (x8)]
-|-----------------|-----------------|
-|-----------------|-----------------|
-|-----------------|-----------------|
-|-2"..------------|-2"..------------|
-|-----5-4-5-4-2-4-|-----5-4-5-4-2-4-|
-|-----3-2-3-2-0-2-|-----3-2-3-2-0-2-|
       . . . . . .       . . . . . .

[Riff 4 (x2)]
-|-----------------------------------------------------------------|
-|-----------------------------------------------------------------|
-|-----------------------------------------------------------------|
-|-----------------------------------6-5---4---3-----6-5---4---3---|
-|---4-3---2---1-----4-3---2---1---7-----6---5---4-7-----6---5---4-|
-|-5-----4---3---2-5-----4---3---2---------------------------------|
   . . . . . . . . . . . . . . . . . . . . . . . . . . . . . . . .

-----------------|
------^----------|
-----[3]~--------|
-----------------|
---------5-4-2-4-|
-0000----3-2-0-2-|
 ....    . . . .

[Riff 5 (x10)]
-|---------------------------|
-|---------------------------|
-|---------------------------|
-|---------------------------|
-|-5--6--5--6--5--6--5-7-8-7-|
-|-3--4--3--4--3--4--3-5-6-5-|
   .  .  .  .  .  .  . . . .

[OUTRO]

[Riff 6 (x2)]
-|------------------------------|------------------------------------------|
-|------------------------------|------------------------------------------|
-|------------------------------|------------------------------------------|
-|------------------------------|---------------------6--5-----4-----3-----|
-|-554-4-4-4-4------6-5-6-5-6-4-|-554-4-4-4-4------7--4--3--6--2--5--1--4--|
-|-332-2-2-2-2-[x3]-4-3-4-3-4-2-|-332-2-2-2-2-[x2]-5--------4-----3-----2--|
   ... . . . .      . . . . . .   ... . . . .      .  .  .  .  .  .  .  .

[Outro 2]
-|---------------------------|----------------------|
-|---------------------------|----------------------|
-|---------------------------|----------------------|
-|---------------------------|----------------------|
-|-5--6--5--6--5--6--5-7-8-7-|-5--6--5--6--5--6-----|
-|-3--4--3--4--3--4--3-5-6-5-|-3--4--3--4--3--4-----|
   .  .  .  .  .  .  . . . .   .  .  .  .  .  .

[RIFF 5 (x8)] then fade out.........

END OF SONG
Добавлено: 16.10.2013
Другие материалы по этой песне:
  • Аккорды и текст

Страница создана 16.10.2013
http://primanota.ru/vomit-remnants/decomposed-of-structure-chords.htm
Привет, Гость.
Предлагаем пройти революционный курс по гитаре.
Подарок от PrimaNota.Ru, забирай!