PrimaNota.ru - самый крупный в мире бесплатный архив песенных текстов, аккордов, табулатур и нот


Volovan - Ella Es Azul - таба, видео

Регистрация Запомнить меня
Войти через:  Facebook Google Twitter Vk Yandex Mail.ru

Volovan - Ella Es Azul - таба, видео

Печатать
Просмотров: 120
Intro:
---------------------------------------------------------------------------|
---------------------------------------------------------------------------|
---------------------------------------------------------------------------|
--10-10-10-10-10-10-10-10--9-9-9-9--7-7-7-7--------------------------------|
--8--8--8--8--8--8--8--8--7-7-7-7--5-5-5-5--5-5-5-5-5-5-5-5-5-5-5-5--------|
-------------------------------------------3-3-3-3-3-3-3-3-3-3-3-3---------|

---------------------------------------------------------------------------|
---------------------------------------------------------------------------|
---------------------------------------------------------------------------|
--10-10-10-10-10-10-10-10--9-9-9-9--7-7-7-7--------------------------------|
--8--8--8--8--8--8--8--8--7-7-7-7--5-5-5-5--5-5-5-5-5-5-5-5-5-5-5-5--------|
-------------------------------------------3-3-3-3-3-3-3-3-3-3-3-3---------|

C              G
AHHHH, ELLA ES AZUL
C              G
AHHHH, ELLA ES AZUL
D                   G
AHHHH, EN SUS OJOS VACIO
D                    A...... (Paren Aquí)
AHHHH, EL AZUL DE EL MAAAAAAR

                       C
Y LAS CARICIAS QUE ME DAS
        F
TIRADOS EN LA ARENA
      C           F           D
CON OLOR A COCO PROTECTOR DE SOL
        G7         D           G7
UH, UH, UHHHH DEL SOL, UH, UH, UHHHH

                  C
Y LA BRISA DE LAS OLAS
         F
NOS MANTIENE FRESCOS
          C          F
MIENTRAS VEMOS ESCONDERSE
    D           G7        D           G7
EL SOL, UH, UH, UHHHH EL SOL, UH, UH, UHHHH


---------------------------------------------------------------------------|
---------------------------------------------------------------------------|
---------------------------------------------------------------------------|
--10-10-10-10-10-10-10-10--9-9-9-9--7-7-7-7--------------------------------|
--8--8--8--8--8--8--8--8--7-7-7-7--5-5-5-5--5-5-5-5-5-5-5-5-5-5-5-5--------|
-------------------------------------------3-3-3-3-3-3-3-3-3-3-3-3---------|


C              G
AHHHH, ELLA ES AZUL
C              G
AHHHH, ELLA ES AZUL
D                     G
AHHHH, EN SUS LABIOS VACIO
D                    A...... (Paren Aquí)
AHHHH, EL AZUL DE EL MAAAAAAR

                       C
Y LAS CARICIAS QUE ME DAS
        F
TIRADOS EN LA ARENA
      C           F           D
CON OLOR A COCO PROTECTOR DE SOL
        G7         D           G7
UH, UH, UHHHH DEL SOL, UH, UH, UHHHH

                  C
Y LA BRISA DE LAS OLAS
         F
NOS MANTIENE FRESCOS
          C          F
MIENTRAS VEMOS ESCONDERSE
    D           G7        D           G7
EL SOL, UH, UH, UHHHH EL SOL, UH, UH, UHHHH

 E
LAS ESTRELLAS BRILLAN
 D           E             C
POR TUS OJOS EN LA OBSCURIDAD
      E           D
ESCUCHANDO LOS LATIDOS
     E              B
ESPERANDO EL NUEVO SOL

Solo:
-----------------------------------------------------|
--5~-7-5------5~-7-5------5~~-7-------5~~-7----------|
--------7-6-7-------7-6-7-------2~~-4-------2~-------|
-----------------------------------------------------|
-----------------------------------------------------|
-----------------------------------------------------|

---------------------------------------------------------------------------|
---------------------------------------------------------------------------|
---------------------------------------------------------------------------|
--10-10-10-10-10-10-10-10--9-9-9-9--7-7-7-7--------------------------------|
--8--8--8--8--8--8--8--8--7-7-7-7--5-5-5-5--5-5-5-5-5-5-5-5-5-5-5-5--------|
-------------------------------------------3-3-3-3-3-3-3-3-3-3-3-3---------|

--------------------------------------------|
--------------------------------------------|
--------------------------------------------|
--10-10-10-10-10-10-10-10--9-9-9-9--7-7-7-7-|
--8--8--8--8--8--8--8--8--7-7-7-7--5-5-5-5--|
--------------------------------------------|

                       C
Y LAS CARICIAS QUE ME DAS
        F
TIRADOS EN LA ARENA
      C           F           D
CON OLOR A COCO PROTECTOR DE SOL
        G7         D           G7
UH, UH, UHHHH DEL SOL, UH, UH, UHHHH

                  C
Y LA BRISA DE LAS OLAS
         F
NOS MANTIENE FRESCOS
          C          F
MIENTRAS VEMOS ESCONDERSE
    D           G7        D           G7
EL SOL, UH, UH, UHHHH EL SOL, UH, UH, UHHHH

Final:
------------------------|
--5-7-------------------|
-----2~~-4-9~~~~~-2~~~~-|
------------------------|
------------------------|
------------------------|
Добавлено: 21.05.2012
Другие материалы по этой песне:

Страница создана 10.05.2012
http://primanota.ru/volovan/ella-es-azul-chords.htm
Привет, Гость.
Предлагаем пройти революционный курс по гитаре.
Подарок от PrimaNota.Ru, забирай!