PrimaNota.ru - самый крупный в мире бесплатный архив песенных текстов, аккордов, табулатур и нот


Volcano Choir - Alaskans - таба, видео

Регистрация Запомнить меня
Войти через:  Facebook Google Twitter Vk Yandex Mail.ru

Volcano Choir - Alaskans - таба, видео

Печатать
Просмотров: 90
Just the intro. It's a work in progress, feel free to add some more.

----7/9-------5/7-----------------------------------------7/9--------5/7----------------------------------------
-----------------------5/7------------------------------------------------------5/7-----------7----7------------
-------9---------7---------------------7----------------------9----------7-------------------9--7/9-------------
-----------0--------0------7-------------7----9p7---------------0----------0-------7----------------7-----------
-0-------------------------------7/9-------7-----------0---------------------------------7/9--------------------
----------------------------------------------------------------------------------------------------------------

---9\7--------7\5-----------------------------------------------------------------------------------------------
-------5----------3------7\5------------------------------------------------------------------------------------
------------------------------------7---------------------------------------------------------------------------
-----------0---------0-------7-------7--9p7---------------------------------------------------------------------
-0------------------------------7/9---7-------------------------------------------------------------------------
----------------------------------------------------------------------------------------------------------------
Добавлено: 22.07.2015
Другие материалы по этой песне:
  • Аккорды и текст

Страница создана 22.07.2015
http://primanota.ru/volcano-choir/alaskans-chords.htm
Привет, Гость.
Предлагаем пройти революционный курс по гитаре.
Подарок от PrimaNota.Ru, забирай!