PrimaNota.ru - самый крупный в мире бесплатный архив песенных текстов, аккордов, табулатур и нот


Void - My Rules - таба, видео

Регистрация Запомнить меня
Войти через:  Facebook Google Twitter Vk Yandex Mail.ru

Void - My Rules - таба, видео

Печатать
Просмотров: 112
Void - My Rules
off the Faith/Void split

intro

e|--6-6-6----6-6-6----6-6-5----6-6-9---------------------------------------|
B|-------------------------------------------------------------------------|
G|-------------------------------------------------------------------------|
D|-------------------------------------------------------------------------|
A|-------------------------------------------------------------------------|
E|-------------------------------------------------------------------------|

verse

e|-------------------------------------------------------------------------|
B|-------------------------------------------------------------------------|
G|-------------------------------------------------------------------------|
D|-----------8-9-9-9-6-6-6-------------------------------------------------|
A|-8-8-8-8-6-6-7-7-7-4-4-4-------------------------------------------------|
E|-6-6-6-6-4---------------------------------------------------------------|

chorus

e|-------------------------------------------------------------------------|
B|-------------------------------------------------------------------------|
G|-------------------------------------------------------------------------|
D|-------------------------------------------------------------------------|
A|-3-3-3-3-3-3-3-3---9-8--6-6----------------------------------------------|
E|-1-1-1-1-1-1-1-1---7-6--4-4----------------------------------------------|



structure:
intro
verse
chorus
verse
chorus
Добавлено: 10.11.2013
Другие материалы по этой песне:
  • Аккорды и текст

Страница создана 10.11.2013
http://primanota.ru/void/my-rules-chords.htm
Привет, Гость.
Предлагаем пройти революционный курс по гитаре.
Подарок от PrimaNota.Ru, забирай!