PrimaNota.ru - самый крупный в мире бесплатный архив песенных текстов, аккордов, табулатур и нот


Voicst - Sticky Plans - таба, видео

Регистрация Запомнить меня
Войти через:  Facebook Google Twitter Vk Yandex Mail.ru

Voicst - Sticky Plans - таба, видео

Печатать
Просмотров: 102
-------------------------------------------------------------------------------
                             Sticky Plans - Voicst
-------------------------------------------------------------------------------
Tabbed by: deHufter
Email:

Tuning: D A D G B e (dropped D)

e|-------------------------------------------------------------------------|
B|-------------------------------------------------------------------------|
G|---------------------13-13-13--------------------------------------------|
D|----------11-11-11---15-15-15---11—13p11-13p11---------------------------|
A|--13-13---9--9--9----16-16-16--------------------------------------------|
D|--13-13------------------------------------------------------------------|

e|-------------------------------------------------------------------------|
B|-------------------------------------------------------------------------|
G|--8-8-8-8----------------------------------------------------------------|
D|--8-8-8-8--8-8-8-8--11-11-11-11--6-6-6-6---------------------------------|
A|--6-6-6-6--8-8-8-8--11-11-11-11--6-6-6-6-×2------------------------------|
D|-----------8-8-8-8--11-11-11-11--6-6-6-6---------------------------------|

The section below is very noisy, these are the basic chords, but he throws a lot of 
strings through these chords

e|--------------------------------------------------------------------------|
B|--------------------------------------------------------------------------|
G|--------------------------------------------------------------------------|
D|--1-1--4-4--6-6-6-6-6-6-6-6-----------------------------------------------|
A|--1-1--4-4--6-6-6-6-6-6-6-6-×3—-------------------------------------------|
D|--1-1--4-4--6-6-6-6-6-6-6-6-----------------------------------------------|

Then he plays a promiscuous chord again, some kind of Dmaj7 I presume:

e|--------------------------------------------------------------------------|
B|--------------------------------------------------------------------------|
G|--6-6-6--8----------------------------------------------------------------|
D|--4-4-4--8-(let ring)-----------------------------------------------------|
A|--5-5-5--6----------------------------------------------------------------|
D|--------------------------------------------------------------------------|

e|-------------------------------------------------------------------------|
B|-------------------------------------------------------------------------|
G|-15----------------15----------------------------------------------------|
D|-----11h13—13/15-------11h13--15-----------------------------------------|
A|-------------------------------------------------------------------------|
D|-------------------------------------------------------------------------|

After this he plays melody of intro + verse muted without high notes and then normal again


| /  slide up
| \  slide down
| h  hammer-on
| p  pull-off
| ~  vibrato
| +  harmonic
| x  Mute note
Добавлено: 18.05.2012
Другие материалы по этой песне:
  • Аккорды и текст

Страница создана 18.05.2012
http://primanota.ru/voicst/sticky-plans-chords.htm
Привет, Гость.
Предлагаем пройти революционный курс по гитаре.
Подарок от PrimaNota.Ru, забирай!