PrimaNota.ru - самый крупный в мире бесплатный архив песенных текстов, аккордов, табулатур и нот


Voice Of The Beehive - Beat Of Love - текст песни, бас-таба, видео

Регистрация Запомнить меня
Войти через:  Facebook Google Twitter Vk Yandex Mail.ru

Voice Of The Beehive - Beat Of Love - текст песни, бас-таба, видео

Печатать
Просмотров: 35
Sorry it's so long but there are so many minor variations in the layout for each part and I'm a perfectionist!

   /       /       /       /       /       /       /       /
G|-----------------------------------------------------------------|
D|-----------------------------------------------------------------|
A|-----------------2-------2-------5-------5-----------------------| - -
E|-0-------0---------------------------------------5-------5-----3-|     \

   /       /       /       /       /       /       /       /              Repeat both X6
G|-----------------------------------------------------------------|
D|-----------------------------------------------------------------|     /
A|-----------------2-------2-------5-------5-----------------------| - -
E|-0-------0---------------------------------------3-------2^------|

       /        /        /        /        /        /        /        /
G|---------------------------------------------------------------------------|
D|-----------------------------------------------------------5---------------|
A|-3---5-------------5---3-------------3------------------------------3------| - - X3
E|-----------------------------------------3-------------3-------------------|

       /        /        /        /        /        /        /        /
G|---------------------------------------------------------------------------|
D|---------------------------------------------------------------------------|
A|-3---5-------------5---3-------------3---0--------0--------0--------0------|
E|---------------------------------------------------------------------------|

   /        /        /        /        
G|-------------------------------------|
D|-9--9--9--9--9--9--9--9--9--9--9--9--|
A|-------------------------------------|
E|-------------------------------------|

   /       /       /       /       /       /       /       /
G|-----------------------------------------------------------------|
D|-----------------------------------------------------------------|
A|-----------------2-------2-------5-------5-----------------------|
E|-0-------0---------------------------------------5-------5-----3-|

   /       /       /       /       /       /       /       /
G|-----------------------------------------------------------------|
D|-----------------------------------------------------------------|
A|-----------------2-------2-------5-------5-----------------------| 
E|-0-------0---------------------------------------5-------5-----3-|     

   /       /       /       /       /       /       /       /           
G|-----------------------------------------------------------------|
D|-----------------------------------------------------------------|     
A|-----------------2-------2-------5-------5-----------------------| 
E|-0-------0---------------------------------------3-------2^------|

   /       /       /       /       /       /       /       /                
G|-----------------------------------------------------------------|
D|-----------------------------------------------------------------|
A|-----------------------------------------------------------------|
E|-0---------------------------------------------------------------|

   /       /       /       /       /       /       /       /
G|-----------------------------------------------------------------|
D|-----------------------------------------------------------------|
A|-----------------------------------------------------------------|
E|-------------------------------------------------3-------2^------|

   /       /       /       /       /       /       /       /
G|-----------------------------------------------------------------|
D|-----------------------------------------------------------------|
A|-----------------2-------2-------5-------5-----------------------| - -
E|-0-------0---------------------------------------5-------5-----3-|     \

   /       /       /       /       /       /       /       /              Repeat both X2
G|-----------------------------------------------------------------|
D|-----------------------------------------------------------------|     /
A|-----------------2-------2-------5-------5-----------------------| - -
E|-0-------0---------------------------------------3-------2^------|

       /        /        /        /        /        /        /        /
G|---------------------------------------------------------------------------|
D|-----------------------------------------------------------5---------------|
A|-3---5-------------5---3-------------3------------------------------3------| - - X3
E|-----------------------------------------3-------------3-------------------|

       /        /        /        /        /        /        /        /
G|---------------------------------------------------------------------------|
D|---------------------------------------------------------------------------|
A|-3---5-------------5---3-------------3---0--------0--------0--------0------|
E|---------------------------------------------------------------------------|

   /        /        /        /        
G|-------------------------------------|
D|-9--9--9--9--9--9--9--9--9--9--9--9--|
A|-------------------------------------|
E|-------------------------------------|

   /       /       /       /       /       /       /       /
G|-----------------------------------------------------------------|
D|-----------------------------------------------------------------|
A|-----------------2-------2-------5-------5-----------------------| 
E|-0-------0---------------------------------------5-------5-----3-|     

   /       /       /       /       /       /       /       /           
G|-----------------------------------------------------------------|
D|-----------------------------------------------------------------|     
A|-----------------2-------2-------5-------5-----------------------| 
E|-0-------0---------------------------------------3-------2^------|

   /       /       /       /       /       /       /       /
G|-----------------------------------------------------------------|
D|-----------------------------------------------------------------|
A|-----------------2-------2-------5-------5-----------------------| 
E|-0-------0---------------------------------------5-------5-----3-|     

   /       /       /       /       /       /       /       /           
G|-----------------------------------------------------------------|
D|-----------------------------------------------------------------|     
A|-----------------2-------2-------5-----5-5-------5-----5-5-------| 
E|-0-------0-------------------------------------------------------|

   /       /       /       /       /        /        /        /
G|---------------------------------------------------------------------|
D|---------------------------------9--9--9--9--9--9--9--9--9--9--9--9--|
A|-5-----5-5-------5-----5-5-------------------------------------------|
E|---------------------------------------------------------------------|

   /        /        /        /
G|------------------------------------|
D|-9--9--9--9--9--9--9--7-------------|
A|-------------------------9--7-------|
E|-------------------------------10-7-|

   /       /       /       /       /       /       /       /
G|-----------------------------------------------------------------|
D|-----------------------------------------------------------------|
A|-----------------2-------2-------5-------5-----------------------| - -
E|-0-------0---------------------------------------5-------5-----3-|     \

   /       /       /       /       /       /       /       /              Repeat both X2
G|-----------------------------------------------------------------|
D|-----------------------------------------------------------------|     /
A|-----------------2-------2-------5-------5-----------------------| - -
E|-0-------0---------------------------------------3-------2^------|

Rest

   /       /       /       /       /       /       /       /
G|-----------------------------------------------------------------|
D|-----------------------------------------------------------------|
A|-----------------2-------2-------5-------5-----------------------| 
E|-0-------0---------------------------------------5-------5-----3-|     

   /       /       /       /       /       /       /       /             
G|-----------------------------------------------------------------|
D|-----------------------------------------------------------------|     
A|-----------------2-------2-------5-------5-----------------------| 
E|-0-------0---------------------------------------3-------2^------|

   /       /       /       /       /       /       /       /
G|-----------------------------------------------------------------|
D|-----------------------------------------------------------------|
A|-----------------2-------2-------5-------5-----------------------| 
E|-0-------0---------------------------------------5-------5-----3-|     

   /       /       /       /       /       /       /       /             
G|-----------------------------------------------------------------|
D|-----------------------------------------------------------------|     
A|-----------------2-------2-------5-------------------------------| 
E|-0-------0-------------------------------------------------------|

   /       /       /       /       /       /       /       /
G|-----------------------------------------------------------------|
D|-----------------------------------------------------------------|
A|-----------------2-------2-------5-------5-----------------------| - -
E|-0-------0---------------------------------------5-------5-----3-|     \

   /       /       /       /       /       /       /       /              Repeat and fade out
G|-----------------------------------------------------------------|
D|-----------------------------------------------------------------|     /
A|-----------------2-------2-------5-------5-----------------------| - -
E|-0-------0---------------------------------------3-------2^------|
Добавлено: 09.12.2015
Другие материалы по этой песне:
  • Аккорды и текст

Страница создана 17.03.2012
http://primanota.ru/voice-of-the-beehive/beat-of-love-chords.htm
Привет, Гость.
Предлагаем пройти революционный курс по гитаре.
Подарок от PrimaNota.Ru, забирай!