PrimaNota.ru - самый крупный в мире бесплатный архив песенных текстов, аккордов, табулатур и нот


Voggas Matthew - Instinct Of The Tame - таба

Регистрация Запомнить меня
Войти через:  Facebook Google Twitter Vk Yandex Mail.ru

Voggas Matthew - Instinct Of The Tame - таба

Печатать
Просмотров: 63
Instinct of the tame

No chords this time.
If you really want chords
or want to coment im at
waltzingalone@hotmail.com
subect: Dude

	|3---2---3-----0-|0---------------|
	|--0---0---0-4---|--0---0---------|
	|4---2---4-----0-|----0-------0-2-|
	|------------4---|2-------2-4-----|
	|----------------|----------------|
	|----------------|----------------|


	|3---2-----0-2---|3---0---0-------|
	|--0---0-4-----0-|--0---0---0---0-|
	|4---2-------2---|4-----------0---|
	|--------4-------|----2---2-------|
	|----------------|----------------|
	|----------------|----------------|


	|--------0-------|0-------0-------|
	|1---1-3---3-1R0-|--0---0---------|
	|2-------2-------|----0-----0-2-4-|
	|----------------|2-------2-------|
	|----------------|----------------|
	|----------------|----------------|


	|--------0---3---|2-------0-------|
	|1---1-3---3-----|--4---4---------|
	|2-------2-------|4---4-----------|
	|----------------|--------2-------|
	|----------------|----------------|
	|----------------|----------------|


	|3-------2-------|------0-0-------|
	|----------------|4---------------|
	|4-------2-------|----------------|
	|----5-------2---|1-------2-------|
	|----------------|----2-------2---|
	|----------------|----------------|


	|3---3---2-------|--------0-------|
	|--0---0---------|4---4-----0---0-|
	|4-------2-------|--4---4-----2---|
	|----5-------2---|1-------2-------|
	|----------------|----2-----------|
	|----------------|----------------|


	|--------0-------|0-------0-------|
	|1---1-3---3-1R0-|--0---0---------|
	|2-------2-------|----0-----0-2-4-|
	|----2-------2---|2-------2-------|
	|----------------|----------------|
	|----------------|----------------|


	|--------0---3---|2-----------0---|
	|1---1-3---3-----|--4---4---4---4-|
	|2-------2-------|4---4---4---0-2-|
	|----2-------2---|----------4-----|
	|----------------|----------------|
	|----------------|----------------|


	|3---2---3---5---|3-------0-------|
	|--0---0---0---0-|--0-4-----0---0-|
	|4---2---4---5---|4-----0-----0---|
	|----------------|----4---2-------|
	|----------------|----------------|
	|----------------|----------------|


	|3---2-----0-2---|3-------0-------|
	|--0---0-4-----0-|--0-4-----0---0-|
	|4---2-------2---|4-----0-----2---|
	|--------4-------|----4---2-------|
	|----------------|----------------|
	|----------------|----------------|


	|--------0-------|0-------0-------|
	|1---1-3---3-1R0-|--0---0---------|
	|2-------2-------|----0-----0-2-4-|
	|----2-------2---|2---------------|
	|----------------|----------------|
	|----------------|----------------|


	|--------0---3---|2-------0-------|
	|1---1-3---3-----|--4---4---------|
	|2-------2-------|4---4-----------|
	|----2-------2---|--------2-------|
	|----------------|----------------|
	|----------------|----------------|


	|3---0---2---0---|----0-2-0-------|
	|----------------|4---------------|
	|4-------2-------|----------------|
	|----5-------2---|1-------2-------|
	|----------------|----2-------2---|
	|----------------|----------------|


	|3---3---2---0---|----0-2-0-------|
	|--0---0---0---0-|4---------0---0-|
	|4-------2-------|--4---------0---|
	|----5-------2---|1-------2-------|
	|----------------|----2-----------|
	|----------------|----------------|


	|----0-2-0-------|----0-2-----0-2-|
	|4---------0---0-|4-------4-------|
	|--4---------0---|--4-------4-----|
	|1-------2-------|1-------1-------|
	|----2-----------|----2-------2---|
	|----------------|----------------|

	|----0-2-0---0- -||
	|4---------4--- -||
	|--4----------- -||
	|1-------2---2- -||
	|----2-----1--- -||
	|-------------- -||
     
Добавлено: 13.07.2013
Вам также может быть интересно:
Другие материалы по этой песне:
  • Аккорды и текст

Страница создана 13.07.2013
http://primanota.ru/voggas-matthew/instinct-of-the-tame-chords.htm
Привет, Гость.
Предлагаем пройти революционный курс по гитаре.
Подарок от PrimaNota.Ru, забирай!