PrimaNota.ru - самый крупный в мире бесплатный архив песенных текстов, аккордов, табулатур и нот


Voggas Matthew - Apathy Of The Ages - таба

Регистрация Запомнить меня
Войти через:  Facebook Google Twitter Vk Yandex Mail.ru

Voggas Matthew - Apathy Of The Ages - таба

Печатать
Просмотров: 63
Apathy of the Ages
Music By: Matthew Voggas
Transcribed by:James Weir


Chords:


E   022100  X79997
Em  022000  X79987
E7  022130  X76757
A   X02220  577655
Am  X02210  577555
A7  X20202  575655
C   X32010  X35553
Cm  X35543
E5
	|------------|------------|------------|------------|
	|------0-----|------------|------------|------------|
	|---0--------|---0-----0--|------2-----|------------|
	|2-----------|2-----2-----|---1--------|---2-----2--|
	|---------3--|------------|2-----------|2-----2-----|
	|------------|------------|---------0--|------------|

	 G        B	           B7       E5
	|------------|------------|------------|------------|
	|------------|------------|------------|------------|
	|------0-----|------------|------------|------------|
	|------------|---4-----4--|------1-----|---2-----0--|
	|---2--------|2-----2-----|---2--------|2-----2-----|
	|3--------2--|------------|2--------0--|------------|

	                           B7           Em
	|------------|------------|------------|------------|
	|------0-----|------------|------------|------------|
	|---------2--|------------|------2--0--|------------|
	|---2--------|0--2--4--2--|---1--------|2-----------|
	|3-----------|------------|2-----------|---2--------|
	|------------|------------|------------|------3--0--|

	 Gb7          Em/G          C/A
	|------------|------------|------------|------------|
	|------------|------------|---------1--|0-----------|
	|------------|------------|------0-----|---242------|
	|------2--4--|------2--5--|---2--------|------4--1--|
	|---1--------|---2--------|0-----------|------------|
	|2-----------|3-----------|------------|------------|

	 Em                         E7           A
	|------------|0----(12)---||7-------7---|5-------5---|
	|------0-----|-----(12)---||--5---5---5-|--5---5---5-|
	|---0-----0--|-----(12)---||----7-------|----6-------|
	|2-----------|------------||------------|------------|
	|------------|------------||------------|------------|
	|------------|------------||------------|------------|

	 C            B            Em      E    Am      D7
	|3-------3---|------------|0-----------|----0---2---|
	|--5---5---5-|7-------7---|--0---0---0-|--1---1---1-|
	|----5-------|--8---8---8-|----0---1---|2-----------|
	|------------|----9-------|2-----------|------------|
	|------------|------------|------------|------------|
	|------------|------------|------------|------------|

	 G            Cm           G            Am      D7
	|3-----------|----3---5---|3-------3---|----0---2---|
	|--3---3-----|--4---4---4-|--3---3---3-|--1---1---1-|
	|----4-----4-|5-----------|----4-------|2-----------|
	|5-------5---|------------|5-----------|------------|
	|------------|------------|------------|------------|
	|------------|------------|------------|------------|

	 G            Cm           Em           Am  Em  A
	|3-----------|----3---5---|7-------7---|8---7---5-0-|
	|--3---3-----|--4---4---4-|--8---8---0-|--0---0-----|
	|----4-----4-|5-----------|----9-------|--------5---|
	|5-------5---|------------|9-----------|7---9-------|
	|------------|------------|------------|------------|
	|------------|------------|------------|------------|

	 Em           A   Em  Am   B            Am  Em  A
	|7-------7-0-|5---7---8---|7-----------|8---7---5-0-|
	|--8---8-----|--0---0---0-|--7---7-----|--0---0-----|
	|----9-------|5---9---7---|----8-----8-|--------5---|
	|9-----------|------------|9-------9---|7---9-------|
	|------------|------------|------------|------------|
	|------------|------------|------------|------------|

	 Em           A   G   D7   Em      E    Am
	|7-------7-0-|5---3---2---|0-----------|----0---0---|
	|--8---8-----|--0---0---0-|--0---0---0-|--1---1---1-|
	|----9-------|5---4---2---|----0---1---|2-----------|
	|9-----------|------------|2-----------|------------|
	|------------|------------|------------|------------|
	|------------|------------|------------|------------|

	 E7           Am           E            Am
	|----0---0---|----0---0---|------------|----0---0---|
	|--3---3---3-|--1---1---1-|----0---0---|--1---1---1-|
	|1-----------|2-----------|--1---1---1-|2-----------|
	|------------|------------|2-----------|------------|
	|------------|------------|------------|------------|
	|------------|------------|------------|------------|

	 E7           Am           A5            B
	|----0---0---|----0-------|------------||----------2-|
	|--3---3---3-|--1---1---0-|------------||4---4---4---|
	|1-----------|2-----------|2-----------||4-4---4-----|
	|------------|--------2---|------------||------------|
	|------------|------------|0-----------||------------|
	|------------|------------|------------||------------|

	 G            A   G   D7   G            Am  Em  A
	|3-----------|5---3---2---|3-------3---|8---7---5---|
	|--3---3-----|--0---0---0-|--3---3---3-|--0---0---0-|
	|----4-----4-|5---4---2---|----4-------|--------5---|
	|5-------5---|------------|5-----------|7---9-------|
	|------------|------------|------------|------------|
	|------------|------------|------------|------------|

	 G            B7           Em      E    Am
	|3-------3---|2-------2---|0-----------|oooo0ooo0ooo|
	|--0---0---0-|--0---0---0-|--0---0---0-|--1---1---1-|
	|----4-------|2---2-------|----0---1---|2-----------|
	|5-----------|----------1-|2-----------|------------|
	|------------|--------2---|------------|------------|
	|------------|------------|------------|------------|

	 E            Am           E            Am
	|------------|oooo0ooo0ooo|------------|oooo0ooooooo|
	|oooo0ooo0ooo|--1---1---1-|oooo0ooooooo|--1---1---1-|
	|--1---1---1-|2-----------|--1---1---1-|2-----------|
	|2-----------|------------|2-------2---|------------|
	|------------|------------|------------|------------|
	|------------|------------|------------|------------|

	 E7           Am  C   E    A5
	|oooo0ooo0ooo|0---0---0---|0-----------|| You don't
	|--3---3---3-|--1---1---0-|------------|| have to
	|1-----------|2---0---1---|2-----------|| play the
	|------------|------------|------------|| "o"'s
	|------------|------------|0-----------||
	|------------|------------|------------||

     
Добавлено: 06.06.2013
Вам также может быть интересно:
Другие материалы по этой песне:
  • Аккорды и текст

Страница создана 06.06.2013
http://primanota.ru/voggas-matthew/apathy-of-the-ages-chords.htm
Привет, Гость.
Предлагаем пройти революционный курс по гитаре.
Подарок от PrimaNota.Ru, забирай!