PrimaNota.ru - самый крупный в мире бесплатный архив песенных текстов, аккордов, табулатур и нот


Vladimir Cosma - Spartakus And The Sun Beneath The Sea - таба, видео

Регистрация Запомнить меня
Войти через:  Facebook Google Twitter Vk Yandex Mail.ru

Vladimir Cosma - Spartakus And The Sun Beneath The Sea - таба, видео

Печатать
Просмотров: 164
Vladimir Cosma - Spartakus and the sun beneath the sea
(Les Mondes Engloutis)
(Soundtrack)


Chords:
Em   022000
Bm   x24432
B    x24442
D    x00232
Am   002210
Am*  577555
Am7  002010
G    320033
C    032010
C*   x35553
F    133211

Em

Verse 1

   Em                          Bm
Shine like a sun...
    Em                      D
Divine...
  Am      -         Am7         G
Far from the world...
  F                     C - B
Mine is the land...

Verse 2 (same as 1)

Chorus:

C            G
Go, follow...
         B               C*
To the sun...
Am* - Bm  C           G
We're so near...
            B         C*
Which has long...
Am* - Bm  C         G
Rainbows dawn...
          B               C* (g f#)
Shining sun...

Note: end of chorus
E-3-------------------0---------
B-5-------------------0---------
G-5-------------------0---------
D-5-------------------2---------
A-3-------------------2---------
E-----------3----2----0---------
                       Next verse

Verse 3-4
Chorus

Solo
   Em             Bm          Em          D
E-0-----02320----0h2------------------------------
B------------3-------3-------5~~--57975--7~-------
G----------------------4---4~----------7----------
D-------------------------------------------------
A-------------------------------------------------
E-------------------------------------------------

   Am              G          F                 B
E----------------------------------------------0h2p0h2~---
B---------5-----5-----0---------------------5-------------
G-5---5-7---7-5---5h7---0----2p0h2---2-4-5----------------
D---------------------------------------------------------
A---------------------------------------------------------
E---------------------------------------------------------

Last (short) chorus:

  C           G
Go, follow...
         B               C*
To the sun...
Am* - Bm  C         G
Rainbows dawn...
          B               C* (g f#)
Shining sun...

Em


Send comments, corrections to:
Attila Magyar (mogyi925(a)primposta.com)
(http://mogyi925.uw.hu)
     
Добавлено: 08.12.2013
Другие материалы по этой песне:
  • Аккорды и текст

Страница создана 14.11.2013
http://primanota.ru/vladimir-cosma/spartakus-and-the-sun-beneath-the-sea-chords.htm
Привет, Гость.
Предлагаем пройти революционный курс по гитаре.
Подарок от PrimaNota.Ru, забирай!