PrimaNota.ru - самый крупный в мире бесплатный архив песенных текстов, аккордов, табулатур и нот


Включай Микрофон - Мой бедный шут - аккорды и текст, видео

Регистрация Запомнить меня
Войти через:  Facebook Google Twitter Vk Yandex Mail.ru

Включай Микрофон - Мой бедный шут - аккорды и текст, видео

Печатать
Просмотров: 76
Мой бедный шут
Включай Микрофон
Вступление
1)-------------------------------------------------------------------------
2)-------------------------------------------------------------------------
3)----------------------------------------------------10--x--10--x--10--10-
4)-----8---x--8--x--8----10--x--10--x--10----10--x--10--x--10--10----------
5)-------8---x--8--x--8----10--x--10--x--10------8---x--8----x--8----8-----
6)-------6---x--6--x--6----8----x--8---x---8-------------------------------

Продолжение(можно играть куплет и припев)
1)-------------------------------------------------------------------------------------------------------------------------
2)-------------------------------------------------------------------------------------------------------------------------
3)---------------------------------------------------------------------------10--10--10--10--10--10---10-------------------
4)-----8---8--8--8--8--8--8----10---10--10--10--10--10--10---10---10--10--10--10--10--10---12--12-12-12--------------------
5)-------8---8--8--8--8--8--8-----10---10--10--10--10--10--10----8-----8----8---8-----8---8----8---12--12-12-12------------
6)-------6---6--6--8--6--6--6-----8-----8----8---8----8----8---8----------------------------------------------10--10-10-12-

1)--------------------
2)--------------------
3)--------------------
4)----12---12---12----
5)-------12---12---12-
6)-------10---10---10-
Добавлено: 01.11.2015
Другие материалы по этой песне:
  • Аккорды и текст

Страница создана 01.11.2015
http://primanota.ru/vklyuchai-mikrofon/moi-bednyi-shut-chords.htm
Привет, Гость.
Предлагаем пройти революционный курс по гитаре.
Подарок от PrimaNota.Ru, забирай!