PrimaNota.ru - самый крупный в мире бесплатный архив песенных текстов, аккордов, табулатур и нот


Viza - Viktor - таба, видео

Регистрация Запомнить меня
Войти через:  Facebook Google Twitter Vk Yandex Mail.ru

Viza - Viktor - таба, видео

Печатать
Просмотров: 125
VIZA - VIKTOR

for help you can watch my cover
link: http://www.youtube.com/watch?v=VFCU0hxRvTs

legend: # # rhythm-you can recognise it in song
        ~~~~ above: fast playing

in case that there are mistakes please let me know

INTRO

--------------------------------------------------------|
--------------------------------------------------------|
--------------------------------------------------------|
--------------------------------------------------------|
-------------------------------------15-13--------------|
14-15-17-#17#-14-15-17-#18#-14-15-17-------17-15-17-15--|

-------------------------------------|
-------------------------------------|
-------------------------------------|
-------------------------------------|
-------------------------------------|
14-15-17-#17#-14-15-17-#17#-14-15-17-|

----------------------------------------------|
----------------------------------------------|
----------------------------------------------|
----------------------------------------------|
--------------15-13---------------------------|
#18#-14-15-17-------17-15-17-15-14-11-10-#10#-|

-------------------------------------------------|
-------------------------------------------------|
-------------------------------------------------|
-------------------------------------------------|
-------------------------------------------------|
11-10-9-#10#-11-10-9-#10#-11-10-9-10--10--10--10-|

------------------8---------------------------------|
8---------8-10-11---11-10-8-8/10/8----8-10-10-10b11-|
--11-8-11--------------------------11---------------|
----------------------------------------------------|
----------------------------------------------------|
----------------------------------------------------|

------------------14----------------14--------------------13-14-15-16-16b17-|
---------13-15-16----16-15-13-15-16-----16-15-13/15/13----------------------|
12-14-15-----------------------------------------------15-------------------|
----------------------------------------------------------------------------|
----------------------------------------------------------------------------|
----------------------------------------------------------------------------|

--------------------------------------------------------------------------|
--------------------------------------------------------------------------|
#14#-15-17-#14#---------------#14#-15-17-#14#----------~~~~~~~~~~~~~~~~~~-|
----------------17-16-15-#16#-----------------17-16-15-17-16-15-17-16-15--|
--------------------------------------------------------------------------|
--------------------------------------------------------------------------|

--------------------------------------------------|
--------------------------------------------------|
#14#-15-17-#14#-----------------------------------|
----------------17-16-15-#16#-#17#-#16#-#17#-#16#-|
--------------------------------------------------|
--------------------------------------------------|

--------------------------------------------------------------------------|
--------------------------------------------------------------------------|
#14#-15-17-#14#---------------#14#-15-17-#14#----------~~~~~~~~~~~~~~~~~~-|
----------------17-16-15-#16#-----------------17-16-15-17-16-15-17-16-15--|
--------------------------------------------------------------------------|
--------------------------------------------------------------------------|

--------------------------------------------------|
--------------------------------------------------|
#14#-15-17-#14#-----------------------------------|
----------------17-16-15-#16#-#17#-#16#-#17#-#16#-|
--------------------------------------------------|
--------------------------------------------------|

Verse 1

(Viktor! My friend .... end so on until the end of the verse)
----------------------------|
----------------------------|
----------------------------|
----------------------------|
12--12--12--12--12--12--12--|
10--10--10--10--10--10--10--|

(after verse 1)

-------------------------------|
-------------------------------|
-------------------------------|
~~~~----~~~~----~~~~----~~~~---|
12--13--13--12--12--13--13--12-|
10--11--11--10--10--11--11--10-|

Verse 2

----------------------------|
----------------------------|
----------------------------|
----------------------------|  ................
12--12--12--12--12--12--12--|
10--10--10--10--10--10--10--|

-------------------------------|
-------------------------------|
-------------------------------|
~~~~----~~~~----~~~~----~~~~---|
12--13--13--12--12--13--13--12-|
10--11--11--10--10--11--11--10-|


CHORUS

---------------------------------------------------------|
------------------13-------------------------13----------|
12-12-14-14-15-15----15-14-12-12-14-14-15-15----15-14-12-|
---------------------------------------------------------|
---------------------------------------------------------|
---------------------------------------------------------|

---------------------------------|
---------------13-------13-------|
12-14-14-15-15----15-14----15-14-|
---------------------------------|
---------------------------------|
---------------------------------|

VERSE 3

----------------------------|
----------------------------|
----------------------------| .................
----------------------------|
12--12--12--12--12--12--12--|
10--10--10--10--10--10--10--|


-------------------------------|
-------------------------------|
-------------------------------|
~~~~----~~~~----~~~~----~~~~---|
12--13--13--12--12--13--13--12-|
10--11--11--10--10--11--11--10-|

Verse 4

----------------------------|
----------------------------|
----------------------------|
----------------------------|  ................
12--12--12--12--12--12--12--|
10--10--10--10--10--10--10--|

-------------------------------|
-------------------------------|
-------------------------------|
~~~~----~~~~----~~~~----~~~~---|
12--13--13--12--12--13--13--12-|
10--11--11--10--10--11--11--10-|


CHORUS

---------------------------------------------------------|
------------------13-------------------------13----------|
12-12-14-14-15-15----15-14-12-12-14-14-15-15----15-14-12-|
---------------------------------------------------------|
---------------------------------------------------------|
---------------------------------------------------------|

---------------------------------|
---------------13-------13-------|
12-14-14-15-15----15-14----15-14-|
---------------------------------|
---------------------------------|
---------------------------------|

                                                    (watch out for rhythm!)
----------------------------------------------------------------------|
---------------------------------------------------------14--17-19-22-|
12----12-14-15-14-12-15-14-12-11-12----12-14-15-14-12-15--------------|
---12-------------------------------12--------------------------------|
----------------------------------------------------------------------|
----------------------------------------------------------------------|

---------------------------------------------------------------------|
---------------------------------------------------------14-17-19-22-|
12----12-14-15-14-12-15-14-12-11-12----12-14-15-14-12-15-------------|
---12-------------------------------12-------------------------------|
---------------------------------------------------------------------|
---------------------------------------------------------------------|

--------------------------------------------------------------------------|
--------------------------------------------------------------------------|
#14#-15-17-#14#---------------#14#-15-17-#14#----------~~~~~~~~~~~~~~~~~~-|
----------------17-16-15-#16#-----------------17-16-15-17-16-15-17-16-15--|
--------------------------------------------------------------------------|
--------------------------------------------------------------------------|

--------------------------------------------------|
--------------------------------------------------|
#14#-15-17-#14#-----------------------------------|
----------------17-16-15-#16#-#17#-#16#-#17#-#16#-|
--------------------------------------------------|
--------------------------------------------------|

VERSE 5

----------------------------|
----------------------------|
----------------------------| .................
----------------------------|
12--12--12--12--12--12--12--|
10--10--10--10--10--10--10--|


-------------------------------|
-------------------------------|
-------------------------------|
~~~~----~~~~----~~~~----~~~~---|
12--13--13--12--12--13--13--12-|
10--11--11--10--10--11--11--10-|

Verse 6

----------------------------|
----------------------------|
----------------------------|
----------------------------|  ................
12--12--12--12--12--12--12--|
10--10--10--10--10--10--10--|

-------------------------------|
-------------------------------|
-------------------------------|
~~~~----~~~~----~~~~----~~~~---|
12--13--13--12--12--13--13--12-|
10--11--11--10--10--11--11--10-|


CHORUS

---------------------------------------------------------|
------------------13-------------------------13----------|
12-12-14-14-15-15----15-14-12-12-14-14-15-15----15-14-12-|
---------------------------------------------------------|
---------------------------------------------------------|
---------------------------------------------------------|

---------------------------------|
---------------13-------13-------|
12-14-14-15-15----15-14----15-14-|
---------------------------------|
---------------------------------|
---------------------------------|


---------------------------------------------------------------------|
---------------------------------------------------------14-17-19-22-|
12----12-14-15-14-12-15-14-12-11-12----12-14-15-14-12-15-------------|
---12-------------------------------12-------------------------------|
---------------------------------------------------------------------|
---------------------------------------------------------------------|

---------------------------------------------------------------------|
---------------------------------------------------------14-17-19-22-|
12----12-14-15-14-12-15-14-12-11-12----12-14-15-14-12-15-------------|
---12-------------------------------12-------------------------------|
---------------------------------------------------------------------|
---------------------------------------------------------------------|

SOLO

15------------------------------------------------------|
---15---------------------------------------15----------|
------17-15----15---------15-17-17b19-17b19----17-15-14-|
------------17------15s17-------------------------------|
--------------------------------------------------------|
--------------------------------------------------------|

----------------------------------------------------------------------|
-------------------------------------------------18-------18----------|
17b19-15----15----15-17b19-15----15----15--17b19----17b19----17b19-17-|
---------17----17-------------17----17--------------------------------|
----------------------------------------------------------------------|
----------------------------------------------------------------------|

------------~~~~~~~~~~~~~~~~~~~~~~~~~~~~~~~~~~~~~~~~~~~~~~~~~~~~~~~~~~~~~-|
------------------15/18/15-------15/18/15--------15/18/15-------15/18/15--|
------15-17-17b19----------17b19-----------17b19----------17b19-----------|
15s17---------------------------------------------------------------------|
--------------------------------------------------------------------------|
--------------------------------------------------------------------------|

----------------------------------------------------------------------|
------15/18/15-------15/18/15--------15/18/15-------15/18/15-------18-|
17b19----------17b19-----------17b19----------17b19----------17b19----|
----------------------------------------------------------------------|
----------------------------------------------------------------------|
----------------------------------------------------------------------|

------------------------------------------------------------------------15-|
-----18--------18----------------------------------------------15-18b20----|
17b19----17b19----17-15----------------------------------15-17-------------|
------------------------17-15----------------------15-17-------------------|
------------------------------17-15----------15-17-------------------------|
------------------------------------15-17-18-------------------------------|

------15-------15-------------|
18b20----18b20----18b20-18b20-|
------------------------------|
------------------------------|
------------------------------|
------------------------------|

CHORUS

---------------------------------------------------------------------|
---------------------------------------------------------14-17-19-22-|
12----12-14-15-14-12-15-14-12-11-12----12-14-15-14-12-15-------------|
---12-------------------------------12-------------------------------|
---------------------------------------------------------------------|
---------------------------------------------------------------------|

---------------------------------------------------------------------|
---------------------------------------------------------14-17-19-22-|
12----12-14-15-14-12-15-14-12-11-12----12-14-15-14-12-15-------------|
---12-------------------------------12-------------------------------|
---------------------------------------------------------------------|
---------------------------------------------------------------------|

---------|
20-20-20-|
---------|
---------|
---------|
---------|
Добавлено: 21.06.2013
Вам также может быть интересно:
Другие материалы по этой песне:
  • Аккорды и текст

Страница создана 21.06.2013
http://primanota.ru/viza/viktor-chords.htm
Привет, Гость.
Предлагаем пройти революционный курс по гитаре.
Подарок от PrimaNota.Ru, забирай!