PrimaNota.ru - самый крупный в мире бесплатный архив песенных текстов, аккордов, табулатур и нот


Viza - Trans-siberian Standoff - таба, бас-таба, видео

Регистрация Запомнить меня
Войти через:  Facebook Google Twitter Vk Yandex Mail.ru

Viza - Trans-siberian Standoff - таба, бас-таба, видео

Печатать
Просмотров: 233
Viza- Trans-Siberian Standoff

tremolo picking: v

INTRO

-----------------------------------------------------------------------------|
19v---17v-14v---12v-14v---12v-14v---12v-9v---7v-9v---5v-7--6-7-9-10-9-7------|
-----------------------------------------------------------------------------|
-----------------------------------------------------------------------------|
-----------------------------------------------------------------------------|
-----------------------------------------------------------------------------|

-----------------------------------------------------------------------------|
19v---17v-14v---12v-14v---12v-14v---12v-9v---7v-9v---5v-7--------------------|
-----------------------------------------------------------------------------|
-----------------------------------------------------------------------------|
-----------------------------------------------------------------------------|
-----------------------------------------------------------------------------|

VERSE

-----------------------------------------------------------------------------|
19---19-17-------------------------------------------------------------------|
-----------18---18-18--16----------------------------------------------------|
--------------------------19----18-16----------------------------------------|
-----------------------------------------------------------------------------|
-----------------------------------------------------------------------------|

-----------------------------------------------------------------------------|
19---19-17-------------------------------------------------------------------|
-----------18---18-18--16----------------------------------------------------|
--------------------------19----18-16----------------------------------------|
-----------------------------------------------------------------------------|
-----------------------------------------------------------------------------|

CHORUS

-----------------------------------------------------------------------------|
19v---17v-14v---12v-14v---12v-14v---12v-9v---7v-9v---5v-7v---6-7-9-10-9-7----|
-----------------------------------------------------------------------------|
-----------------------------------------------------------------------------|
-----------------------------------------------------------------------------|
-----------------------------------------------------------------------------|

-----------------------------------------------------------------------------|
19v---17v-14v---12v-14v---12v-14v---12v-9v---7v-9v---5v-7--------------------|
-----------------------------------------------------------------------------|
-----------------------------------------------------------------------------|
-----------------------------------------------------------------------------|
-----------------------------------------------------------------------------|


SOLO

-----------------------------------------------------------------------------|
-----------------------------------------------------------------------------|
-----------------------------------------------------------------------------|
16v--18v--19v--18v--16v--18v--19v--18v--16v--18v--19v--18v--16v--18v--19v----|
-----------------------------------------------------------------------------|
-----------------------------------------------------------------------------|

-----------------------------------------------------------------------------|
-----------------------------------------------------------------------------|
-----------------------------------------------------------------------------|
18v--19v--21v--19v--18v--19v--21v--19v--18v--19v--21v--19v--18v--19v--21v----|
-----------------------------------------------------------------------------|
-----------------------------------------------------------------------------|

-----------------------------------------------------------------------------|
------------18v--15v----------------------19v--21v--22v--21v--19v--21v--22v--|
----------------------18v--16v-------18--------------------------------------|
19v-18~-------------------------19v------------------------------------------|
-----------------------------------------------------------------------------|
-----------------------------------------------------------------------------|

---------------------------------------------17v--19v--20v--19v--17v--19v----|
21v--19v--21v--22v--21v--19v--21v--22v--21v----------------------------------|
-----------------------------------------------------------------------------|
-----------------------------------------------------------------------------|
-----------------------------------------------------------------------------|
-----------------------------------------------------------------------------|

20v--19v--17v--19v--20v--19v--17-----16-14---14-------------------------------|
-------------------------------------------18---18-15-18-15----15-------------|
------------------------------------------------------------18----18-16-18-16-|
------------------------------------------------------------------------------|
------------------------------------------------------------------------------|
------------------------------------------------------------------------------|

-----------------------------------------------------------------------------|
-----------------------------------------------------------------------------|
---16----------------------------------------16v--18-------18-19-18-19-18-19-|
19----19-18-19-18-16-18-16----16v--18v--19v----------19-19-------------------|
---------------------------20------------------------------------------------|
-----------------------------------------------------------------------------|

-----------------------------------------------------------------------------|
-----------------------------------------------------------------------------|
18--------18-19-18-19-18-19-18--------18-19-18-19-18-19-18--19-16------------|
---18-18-----------------------16-16-----------------------------------------|
-----------------------------------------------------------------------------|
-----------------------------------------------------------------------------|

-----------------------------------------------------------------------------|
-----------------------------------------------------------------------------|
18-------18-19-18-19-18-19-18--------18-19-18-19-18-19-------18-19-18-19-18--|
---19-19----------------------18-18--------------------16-16-----------------|
-----------------------------------------------------------------------------|
-----------------------------------------------------------------------------|

------------------------------------------------------------------------------|
------------------------------------------------------------------------------|
19-18v--19v-16v--18--------18-19-18-19-18-19-18-------18-19-18-19-18-19-18----|
--------------------19-19-----------------------18-18----------------------16-|
------------------------------------------------------------------------------|
------------------------------------------------------------------------------|


-----------------------------------------------------------------------------|
----------------------18v----------------------------------------------------|
----18-19-18-19-18-19--------19v----18--------18-19-18-19-18-19-18-----------|
16-------------------------------------19-19-----------------------18-18-----|
-----------------------------------------------------------------------------|
-----------------------------------------------------------------------------|


-----------------------------------------------------------------------------|
-----------------------------------------------------------------------------|
18-19-18-19-18-19--------18-19-18-19-18-19-16--19--18------------------------|
------------------16-16--------------------------------15-16--16-16-16-16----|
-----------------------------------------------------------------------------|
-----------------------------------------------------------------------------|


For help you can watch my video cover
link: http://www.youtube.com/watch?v=IhJuMI-Jzis
Добавлено: 21.10.2013
Другие материалы по этой песне:
  • Аккорды и текст

Страница создана 18.04.2012
http://primanota.ru/viza/trans-siberian-standoff-chords.htm
Привет, Гость.
Предлагаем пройти революционный курс по гитаре.
Подарок от PrimaNota.Ru, забирай!