PrimaNota.ru - самый крупный в мире бесплатный архив песенных текстов, аккордов, табулатур и нот


Viza - Carnivalia - таба, видео

Регистрация Запомнить меня
Войти через:  Facebook Google Twitter Vk Yandex Mail.ru

Viza - Carnivalia - таба, видео

Печатать
Просмотров: 142
This is the rhythm part for Viza - Carnivalia. Have fun playing it.

Tabbed by: DR
Tuning: D# G# C# F# A# D#

Note 1: The Chorus is tremolo picked.

Intro:
Guitar 1:
 G#m      D#      E        B      C#m      B
------------------------------------------------------------------------------|
-------------------------------------6----------------------------------------|
----5------1--------2-------0-------7-----------------------------------------|
---7---------------3---------------7--------10--------------------------------|
--7-------2-------3--------7------5--------10---------------------------------|
-5-------0-------1--------8---------------8-------0-------0-2-4---------------|

 G#m      D#      E        B      C#m      D#
------------------------------------------------------------------------------|
-------------------------------------6----------------------------------------|
----5------1--------2---------------7-------1---------------------------------|
---7---------------3---------10----7------------------------------------------|
--7-------2-------3--------10-----5--------2----------------------------------|
-5-------0-------1--------8---------------0-------5-------5-4-5---------------|

Riff 1:

Pick scrape

Chorus

-----------------------------------------------------------------------------l--| x4
--------------------------------------------------------------------------------|
--------------------------------------------------------------------------------|
------------------------------7-------------------------------------------------|
------------7-------5---5-5--8----8-5-----------7-10--7---------------5--3-2----|
-5---5-5--8----8-5---------------------8---8-8----------8--0---0-0--4-----------|

Verse

------------------------------------------------------------------------------|
------------------------------------------------------------------------------|
------------------------------------------------------------------------------|
-7-7--7--5-5--9-9--9-------7-7--7--5-5--9-9--9--------------------------------|
-5-5--5--3-3--7-7--7--7-7--5-5--5--3-3--7-7--7-7-7-7-7-7----------------------|
----------------------5-5----------------------5-5-5-5-5----------------------|

------------------------------------------------------------------------------|
------------------------------------------------------------------------------|
------------------------------------------------------------------------------|
-7-7--7--5-5--9-9--9-------7-7--7--5-5--9-9-9-9-9-9-9-9-----------------------|
-5-5--5--3-3--7-7--7--7-7--5-5--5--3-3--7-7-7-7-7-7-7-7-----------------------|
----------------------5-5-----------------------------------------------------|

Chorus

-----------------------------------------------------------------------------l--| x2
--------------------------------------------------------------------------------|
--------------------------------------------------------------------------------|
------------------------------7-------------------------------------------------|
------------7-------5---5-5--8----8-5-----------7-10--7---------------5--3-2----|
-5---5-5--8----8-5---------------------8---8-8----------8--0---0-0--4-----------|

Verse

------------------------------------------------------------------------------|
------------------------------------------------------------------------------|
------------------------------------------------------------------------------|
-7-7--7--5-5--9-9--9-------7-7--7--5-5--9-9--9--------------------------------|
-5-5--5--3-3--7-7--7--7-7--5-5--5--3-3--7-7--7-7-7-7-7-7----------------------|
----------------------5-5----------------------5-5-5-5-5----------------------|

------------------------------------------------------------------------------|
------------------------------------------------------------------------------|
------------------------------------------------------------------------------|
-7-7--7--5-5--9-9--9-------7-7--7--5-5--9-9-9-9-9-9-9-9-----------------------|
-5-5--5--3-3--7-7--7--7-7--5-5--5--3-3--7-7-7-7-7-7-7-7-----------------------|
----------------------5-5-----------------------------------------------------|

Pre-chorus

------------------------------------------------------------------------------|
------------------------------------------------------------------------------|
------------------------------------------------------------------------------|
------------------------------7-----------------------------------------------|
------------7-------5---5-5--8----8-5-----------7-10--7---------------5--3-2--|
-5---5-5--8----8-5---------------------8---8-8----------8--0---0-0--4---------|

Chorus

-----------------------------------------------------------------------------l--| x3
--------------------------------------------------------------------------------|
--------------------------------------------------------------------------------|
------------------------------7-------------------------------------------------|
------------7-------5---5-5--8----8-5-----------7-10--7---------------5--3-2----|
-5---5-5--8----8-5---------------------8---8-8----------8--0---0-0--4-----------|

Bridge + Solo

---------------------------------------------------------|
---------------------------------------------------------|
---------------------------------------------------------|
---------------------------------------------------------|
---------------------------------------------------------|
-5-5-5-5-5-5--7-7-7-7-7--8-8-8-8-8-8--10-10-10-10-10-10--|

--------------------------------------------------------l--| x4
-----------------------------------------------------------|
-----------------------------------------------------------|
-----------------------------------------------------------|
-----------------------------------------------------------|
-12-0-0-0-0-0--12-0-0-0-0-0--12-0-0-0-0-0--12-0-0-0-0-0----|

Re-Intro
(Without guitars I think...)

Outro

----------------------------------------------------------------------------------------------|
-----------------------------------------------------------6---6------------------------------|
-----5---5-------1---1--------2---2---------9----9---------------7-------9----9---------------|
-----------7-----------2------------3--------------10----7---7------------------10------------|
---7---7-------2---2--------3---3--------10---10-------5--------------10---10-----------------|
-5-----------0------------1------------8----------------------------8---------------0---0-2-4-|

----------------------------------------------------------------------------------------------|
-----------------------------------------------------------6---6------------------------------|
-----5---5-------1---1--------2---2---------9----9---------------7-------1---1----------------|
-----------7-----------2------------3--------------10----7---7-----------------2--------------|
---7---7-------2---2--------3---3--------10---10-------5--------------2----2------------------|
-5-----------0------------1------------8----------------------------0---------------5---5-4-5-|
Добавлено: 05.11.2013
Другие материалы по этой песне:
  • Аккорды и текст

Страница создана 05.11.2013
http://primanota.ru/viza/carnivalia-chords.htm
Привет, Гость.
Предлагаем пройти революционный курс по гитаре.
Подарок от PrimaNota.Ru, забирай!