PrimaNota.ru - самый крупный в мире бесплатный архив песенных текстов, аккордов, табулатур и нот


Vixx - Someday - таба, видео

Регистрация Запомнить меня
Войти через:  Facebook Google Twitter Vk Yandex Mail.ru

Vixx - Someday - таба, видео

Печатать
Просмотров: 217
-------------------------------------------------------------------------------
                             Someday - VIXX
-------------------------------------------------------------------------------
Tabbed by: Kylar 
E-mail: tarantaellegra@gmail.com

Tuning: Standard

Chords

Intro, Verse, Chorus:  Cmaj7  G
Bridge: Em Bm Am D
 
Tab

Intro:
 
      Cmaj7                         G
e|----------------------|------|------------------------|----------------|
B|----------0-----------|------|-----------3------------|----------------|
G|-------------0--------|-x2---|--------------4---------|--x2------------|
D|-------2--------2-----|------|--------5---------5-----|----------------|
A|----3-----------------|------|------------------------|----------------|
E|----------------------|------|----3-------------------|----------------|

Verse 1 - Chorus - Post Chorus - Verse 2:

      Cmaj7                         G
e|----------------------|------|------------------------|----------------|
B|----------0-----------|------|-----------3------------|----------------|
G|-------------0----0---|-x2---|--------------4-----4---|--x2------------|
D|-------2--------2-----|------|--------5---------5-----|----------------|
A|----3-----------------|------|------------------------|----------------|
E|----------------------|------|----3-------------------|----------------|

Pre-Chorus:

      Cmaj7      G
e|-----0---------5-------------------------------------------------------|
B|-----0---------3-------------------------------------------------------|
G|-----0---------4-------------------------------------------------------|
D|-----2---------5-------------------------------------------------------|
A|-----3---------5-------------------------------------------------------|
E|-----x---------3-------------------------------------------------------|

Chorus: 

     Cmaj7                          G
e|----------------------|------|------------------------|----------------|
B|----------0-----------|------|-----------3------------|----------------|
G|-------------0----0---|-x2---|--------------4-----4---|--x2------------|
D|-------2--------2-----|------|--------5---------5-----|----------------|
A|----3-----------------|------|------------------------|----------------|
E|----------------------|------|----3-------------------|----------------|

Bridge:

      Em         Bm       Am         D
e|-----7---------7---------0---------2-----------------------------------|
B|-----8---------7---------1---------3-----------------------------------|
G|-----9---------7---------2---------2-----------------------------------|
D|-----9---------9---------2---------0-----------------------------------|
A|-----7---------9---------0---------x-----------------------------------|
E|-----x---------7---------x---------x-----------------------------------|

Chorus - Outro: 

     Cmaj7                          G
e|----------------------|------|------------------------|----------------|
B|----------0-----------|------|-----------3------------|----------------|
G|-------------0----0---|-x2---|--------------4-----4---|--x2------------|
D|-------2--------2-----|------|--------5---------5-----|----------------|
A|----3-----------------|------|------------------------|----------------|
E|----------------------|------|----3-------------------|----------------|






************************************

| /   slide up
| \   slide down
| h   hammer-on
| p   pull-off
| ~   vibrato
| +   harmonic
| x   Mute note
| b   Bend
| pb  Pre-bend
| br  Bend release
| pbr Pre-bend release
| brb Bend release bend

************************************
Добавлено: 14.06.2015
Другие материалы по этой песне:
  • Аккорды и текст

Страница создана 14.06.2015
http://primanota.ru/vixx/someday-chords.htm
Привет, Гость.
Предлагаем пройти революционный курс по гитаре.
Подарок от PrimaNota.Ru, забирай!