PrimaNota.ru - самый крупный в мире бесплатный архив песенных текстов, аккордов, табулатур и нот


Vixen - Hard 16 - аккорды и текст, таба, видео

Регистрация Запомнить меня
Войти через:  Facebook Google Twitter Vk Yandex Mail.ru

Vixen - Hard 16 - аккорды и текст, таба, видео

Печатать
Просмотров: 152
Hard 16
Vixen
		   Vixen "Hard 16"
from Rev it Up

letostak@netcom.com
The solo is a little off, unlike the Yngwie stuff, I didn't copy this from
a book and my ghetto blaster is in the shop, but the rest of the song is
(hopefully) right.  If anyone has any other tab of Vixen, could you please
post it?  I'd really appreciate it.


Intro play 2x
                                   palm mute here
------|--------------------------------------------------------------------|
------|--------------------------------------------------------------------|
------|--------------------------------------------------------------------|
---x--|--------------------------------------------------------------------|
---x--|--5-5-3-0-3-5--5-5-3-0-8-5--5-5-3-0-3-5--5-5-3----------------------|
---x--|-----------------------------------------------5-4-3-1--------------|
slide


verse
play chord for bar
--------------------------|
--------------------------|
-7------------------------|
-7------------------------|
-5------5-3-----8-5-------|
------------5-4-----------|

Daddy didn't care, mama wasn't there
Jenny slammed the door to her heart
Packed a suitcase of anger
No one tried to save her
She headed for the city that
Shines in the Dark



Pre-Chorus

-----------------------------------|
-----------------------------------|
-3--5--7----10--10--7-----3--5-----|
-3--5--7----10--10--7-----3--5-----|
-1--3--5------------------1--3-----|
-----------------------------------|

But the light's fade away
When you're young on the streets
Without a friend
Jenny learned to survive
Put a price on the nights that never end



Chorus

----------------------------------------------------------------------------
----------------------------------------------------------------------------
-7-----7--7--10--7---3---5--------------------------------------------------
-7-----7--7--10--7---3---5--------------------------------------------------
-5-------------------1---3--------------------------------------------------
----------------------------------------------------------------------------
She's hard 16
Soft to the touch, but she's seen too much
She's hard 16
Will her soul run dry by 17?


play intro 1x

Verse

A face of innocence
Just doesn't stand a chance
Between the losers, the takers, the lost
G Jenny never crid, locked her pain inside
Trapped in a time bomb ready to blow

Pre-chorus
There will come a day
When the mirror reveals a total stranger
Another lonely runaway in a living hell

Chorus


Bridge

-----------------------|
-----------------------|
-3-------7-----5-------|
-3-------7-----5-------|
-1-------5-----3-------|
-----------------------|

Jenny, please come home
You've got so much to give
G much life to live, so come home


Solo
               *artifical harm==============
----------------------------------------------------------------------------
-12bf---12-10--12-12-12-12-12-12--14-14-14-14---15-14-----14-15-------------
------------------------------------------------------14--------14----------
---------------------------------------------------------------------11-12--
----------------------------------------------------------------------------
----------------------------------------------------------------------------

* hold bend while striking A
----------------------------------------------------------------------------
--------------------------------------------------------------------12-15---
-------------------14-----------------------------------------10-12---------
----------12-14bf*------14br-14-------------------------10-12---------------
14--12-14-----------------------12br-12--------10-12-14---------------------
-----------------------------------------10-12------------------------------

               1/2
12-15br--15p12-----------|
---------------15b--15~--|
-------------------------|
-------------------------|
-------------------------|
-------------------------|

Chorus

last bar of chorus
---------------------------|
---------------------------|
---------------------7--7--|
---------------------7--7--|
-3-5-----------1-3---5--5--|
-----3-5--1-3--------------|


Continue chorus modulating to D# i.e. move everything up one fret     
Добавлено: 17.07.2013
Другие материалы по этой песне:

Страница создана 21.02.2012
http://primanota.ru/vixen/hard-16-chords.htm
Привет, Гость.
Предлагаем пройти революционный курс по гитаре.
Подарок от PrimaNota.Ru, забирай!