PrimaNota.ru - самый крупный в мире бесплатный архив песенных текстов, аккордов, табулатур и нот


Vivid - Yume Mugen No Kanata - бас-таба, видео

Регистрация Запомнить меня
Войти через:  Facebook Google Twitter Vk Yandex Mail.ru

Vivid - Yume Mugen No Kanata - бас-таба, видео

Печатать
Просмотров: 119
INTRO:

G------------------------------------------------------------|
D----------7-6------------9-7-------------------7-6----------|
A----4--4-------------4---4----------------4---4-------4(3x)-|
E--7--7------------7----7----------------7---7---------------|

CHORUS:

G-------------------------------------------------------------|
D-------------------------------------------------------------|
A---------------------------4-2-----------------------4(6x)---|
E--5(6x)--7(6x)--9(6x)---------5(6x)-----7(6x)-----------4----|(6x)

G--------------------------------------------------------------|
D--------------------------------------------------------------|
A-------------------------4(6x)--------------------------------|
E--5(6x)--7(6x)--4(6x)--------------2(7x)--4(7x)---5-4-5-4-5-7-|

PRE VERSE:
G------------------------------------------------------------|
D-------------------11-9-7-6------------------------6-9------|
A------------------------------------------------7-----------|
E--555-4-777-5-99---------------55-4-77-5---5-7-9------------|

VERSE:
G------------------------------------------------------------------|
D------------------------------------------------------------------|
A--4-2-44---2-4-2-44---2-4-2-44---2-4-2-44-4-2---------------------|
E--------------------------------------------5-5555-5-4-2-2222-2-4-|

G-----------------------------------------------------------------|
D-----------------------------------------------------------------|
A--4-2-44-2-4-2-44----1-2-4-2-44---2-4-2-44---2-4-2-44--2-4-2-44--|
E-----------------------------------------------------------------|

G-------------------------------------------------4-6-------------|
D------------------------------------------2-4-6------------------|
A--4-2----------------------4-444------2-4------------------------|
E-----5-555-5-4-2-222-2-4-----------------------------------------|

G-------------------------------------------------------------------|
D-------------------------------------------------------------------|
A--4-2-44-4-2--------------------4-444---4-2------------------------|
E-------------5-555-5-4-2-222-2-4--------------5(6x)-5-4--2-22-4-44-|

G-------------------------------------------------------------------|
D-------------------------------------------------------------------|
A--12-11-12-14------------------------------------------------------|
E-------------------------------------------------------------------|

REPEAT CHORUS ONCE THEN PLAY PRE VERSE
THEN PLAY VERSE AND CHORUS

BRIDGE:(GUITAR SOLO )
G-------------------------------------------------------------------|
D-------------------------------------------------------------------|
A----------------------------------------------------------------12-|
E--5-4-5-4-5-4-5-4-5-4-5-4-5-7-----7-5-7-5-7-5-7-5-7-5-7-5-7-5------|

REPEAT CHORUS ONCE THEN INTRO



Tabbed by Gjon
Добавлено: 02.08.2013
Другие материалы по этой песне:

Страница создана 02.08.2013
http://primanota.ru/vivid/yume-mugen-no-kanata-chords.htm
Привет, Гость.
Предлагаем пройти революционный курс по гитаре.
Подарок от PrimaNota.Ru, забирай!