PrimaNota.ru - самый крупный в мире бесплатный архив песенных текстов, аккордов, табулатур и нот


Vivid - Wbawing Broken Angel - бас-таба, видео

Регистрация Запомнить меня
Войти через:  Facebook Google Twitter Vk Yandex Mail.ru

Vivid - Wbawing Broken Angel - бас-таба, видео

Печатать
Просмотров: 67
LEARNED THIS SONG BY EAR



HAVE FUN LEARNING IT

INTRO:
G----------------------------------------------|
D-----------------------------------------6-11-|
A------12-6(7x)-9---6(5x)---66-4-66-4-66-------|
E----------------------------------------------|

G----------------------------------------------|
D---------------666-11-------------------6-11--|
A--66-4-66-4-66----------66-4-66-4-66----------|
E----------------------------------------------|

G----------------------------------------------|
D---------------------666-11-------------------|
A--66-4-66-4-66--------------------------------|
E----------------------------------------------|

PRE VERSE:
G---------------------------------------------|
D------4----------------4---------------------|
A--66----66-4-------66----66-4----------------|
E--------------6----------------6-------------|

G---------------------------------------------|
D-------4----------------4--------------------|
A--66----66-4-------66----66-4----------------|
E--------------6---------------6--------------|

G---------------------------------------------|
D------4-----------------4--------------------|
A--66----66-4-------66----66-4----------------|
E-------------6----------------6--------------|

G---------------------------------------------|
D-----4------------------4--------------------|
A--66----66-4-------66----66-4----------------|
E-------------6-------------------------------|

VERSE:
G---------------------------------------------|
D---------------------------------------------|
A--6(3x)--6(3x)--2(3x)----4(3x)--6(3x)--6(3x)-|
E---------------------------------------------|

G---------------------------------------------|
D------6-4-3-4--------------------------------|
A--2(3x)--------6(3x)--6(3x)--6-4-2-----------|
E---------------------------------------------|

G-------------------------------------------------|
D-------------------------------------------------|
A--22-44--4(3x)--6(3x)--6(3x)-----6-4-2(3x)-4-----|(3x)
E-------------------------------------------------|

REPEAT PRE VERSE

PRE CHORUS:
G----------------------------------------------|
D-----------------------------------8-66-------|
A---22-22-44---44-----6(5x)-------66-------9-8-|
E----------------------------------------------|

G-----------------------------------------------|
D----8-66---------------------------------------|
A--66------9-8----22-22-44-44------ --------2-1-|
E--------------------------------4-2-4-2-4------|

CHORUS:
G----------------------------------------------|
D----------------------------------------------|
A--2(7x)--4(7x)-----6(7x)-------------2(7x)----|
E-------------------------2(6x)--2-4-----------|

G-------------------11-10-11-10-----------------|
D-----------13-13-------------------------------|
A--4(7x)----------------------------------------|
E-----------------------------------------------|

G------------------11-10-11-10-------------------|
D------13-13-------------------------------------|
A------------------------------2(7x)-4(7x)-6-----|(7x)
E------------------------------------------------|

G-----------------------------------------------|
D-----------------------------------------------|
A--8(8x)----8-6----2(7x)---4(4x)----------------|
E-----------------------------------------------|

REPEAT PRE VERSE:

BRIDGE:(GUITAR SOLO)
G------------------------------------------------------|
D------------------------------------------------------|
A--12-6------------------------------------------------|
E--------------6(3x)--6(3x)-6(3x)--2-4-6(3x)-6(3x)-6---|(3x)

G-----------------------------------------------------|
D-----------------------------------------------------|
A----2-4-6(20x)--2-4--6(20x)---2-4--6(7x)--4(7x)-6----|(9x)
E-----------------------------------------------------|

G------------------------------------------------------|
D--------------------------------------13(17x)---------|
A--2-4---6(7x)--4(4x)--6(3x)--4(7x)--------------------|
E------------------------------------------------------|

REPEAT PRE VERSE THEN REPEAT PRE CHORUS
REPEAT CHORUS
REPEAT INTRO

*DOUBLE NUMBER MEANS YOU HAVE TO PLAY IT TWICE

Tabbed by Gjon
Добавлено: 28.10.2013
Вам также может быть интересно:
Другие материалы по этой песне:
  • Аккорды и текст

Страница создана 28.10.2013
http://primanota.ru/vivid/wbawing-broken-angel-chords.htm
Привет, Гость.
Предлагаем пройти революционный курс по гитаре.
Подарок от PrimaNota.Ru, забирай!