PrimaNota.ru - самый крупный в мире бесплатный архив песенных текстов, аккордов, табулатур и нот


Vitreous Humor - Stay Tuned For The Holidays - аккорды и текст, видео

Регистрация Запомнить меня
Войти через:  Facebook Google Twitter Vk Yandex Mail.ru

Vitreous Humor - Stay Tuned For The Holidays - аккорды и текст, видео

Печатать
Просмотров: 45
Stay Tuned For The Holidays
Vitreous Humor
Verse

G|-------------------------------------------------|
D|-------------------------------------------------|
A|-2-2-2-3-3-3-------------------------------------|
E|-------------2-2-2-3-3-3-2-2-2-3-3-3-2-2-2-3-3-3-|

Chorus

G|-----------------------------------------------------|
D|-----------------------------------------------------|
A|-2-2-2-3-3-3-3-5-5-5-3-3-3-3-------------------------|
E|-----------------------------2-2-2-3-3-3-2-2-2-3-3-3-|

That's it!
Добавлено: 04.12.2015
Другие материалы по этой песне:
  • Аккорды и текст

Страница создана 04.12.2015
http://primanota.ru/vitreous-humor/stay-tuned-for-holidays-chords.htm
Привет, Гость.
Предлагаем пройти революционный курс по гитаре.
Подарок от PrimaNota.Ru, забирай!