PrimaNota.ru - самый крупный в мире бесплатный архив песенных текстов, аккордов, табулатур и нот


Vitamin X - Bad Trip - таба, видео

Регистрация Запомнить меня
Войти через:  Facebook Google Twitter Vk Yandex Mail.ru

Vitamin X - Bad Trip - таба, видео

Печатать
Просмотров: 175
Уроки эстрадного вокала в Санкт-Петербурге
-----------------------------------------------------------------------
                            Vitamin X – Bad Trip
-----------------------------------------------------------------------

Tabs may not be 100% Correct so Listen to the Bad Trip and correct it :)

By: Uroš Žarn       E-mail: uroszar@gmail.com

e|--------------------------------------------------------------------|
B|--------------------------------------------------------------------|
G|--------------------------------------------------------------------|
D|------7-----10------7-----10------7-----10------7-----10------------|
A|---9--5--7--8----9--5--7--8----9--5--7--8----9--5--7--8-------------|
E|---7-----5-------7-----5-------7-----5-------7-----5----------------|

Fast part

6x

e|--------------------------------------------------------------------|
B|--------------------------------------------------------------------|
G|--------------------------------------------------------------------|
D|---------101010-7-7-7----10-----------------------------------------|
A|---9-9-9-8-8-8—-5-5-5--7-8------------------------------------------|
E|---7-7-7---------------5--------------------------------------------|


  
e|--------------------------------------------------------------------|
B|--------------------------------------------------------------------|
G|--------------------------------------------------------------------|
D|---7-7----------------7-7-------------------------------------------|
A|---5-5-7-7-9-9-9-9-9--5-5-7-7-9-9-9-9-9-9-9-9-9-9-9-9-9-9-----------|
E|-------5-5-7-7-7-7-7------5-5-7-7-7-7-7-7-7-7-7-7-7-7-7-7-----------|
                   X X              X X     X X       X X 

e|--------------------------------------------------------------------|
B|--------------------------------------------------------------------|
G|--------------------------------------------------------------------|
D|---7---10-----------------------------7---10------------------------|
A|---5-7-8-9-9-9-9-9-9-9-9-9-9-9-9-9-9--5-7-8--9----------------------|
E|-----5---7-7-7-7-7-7-7-7-7-7-7-7-7-7----5----7----------------------|
               X X     X X       X X

Fast part

4x

e|--------------------------------------------------------------------|
B|--------------------------------------------------------------------|
G|--------------------------------------------------------------------|
D|---------101010-7-7-7----10-----------------------------------------|
A|---9-9-9-8-8-8—-5-5-5--7-8------------------------------------------|
E|---7-7-7---------------5--------------------------------------------|


e|--------------------------------------------------------------------|
B|--------------------------------------------------------------------|
G|--------------------------------------------------------------------|
D|---7-7----------------7-7-------------------------------------------|
A|---5-5-7-7-9-9-9-9-9--5-5-7-7-9-9-9-9-9-9-9-9-9-9-9-9-9-9-----------|
E|-------5-5-7-7-7-7-7------5-5-7-7-7-7-7-7-7-7-7-7-7-7-7-7-----------|
                   X X              X X     X X       X X 

e|--------------------------------------------------------------------|
B|--------------------------------------------------------------------|
G|--------------------------------------------------------------------|
D|---7---10-----------------------------7---10------------------------|
A|---5-7-8-9-9-9-9-9-9-9-9-9-9-9-9-9-9--5-7-8--9----------------------|
E|-----5---7-7-7-7-7-7-7-7-7-7-7-7-7-7----5----7----------------------|
               X X     X X       X X

e|---------------------------------------------------------------------|
B|---------------------------------------------------------------------|
G|---------------------------------------------------------------------|
D|-----7---10----7---10----7---10----7---10----------------------------|
A|-----5-7-8-9---5-7-8-9---5-7-8-9---5-7-8-11--------------------------|
E|-------5---7-----5---7-----5---7-----5---9---------------------------|


                              HXC KK
========================================================================
Добавлено: 11.04.2012
Вам также может быть интересно:
Другие материалы по этой песне:
  • Аккорды и текст

Страница создана 11.04.2012
http://primanota.ru/vitamin-x/bad-trip-chords.htm
Привет, Гость.
Предлагаем пройти революционный курс по гитаре.
Подарок от PrimaNota.Ru, забирай!