PrimaNota.ru - самый крупный в мире бесплатный архив песенных текстов, аккордов, табулатур и нот


Vit Legion - Farval - таба, видео

Регистрация Запомнить меня
Войти через:  Facebook Google Twitter Vk Yandex Mail.ru

Vit Legion - Farval - таба, видео

Печатать
Просмотров: 86
Farval By:Vit Legion.

First off all i am NOT a nazi, i just reallly like this song.

  Ebm
E|-----------0--------------------0-----------|
B|--------------0--------------------0--------|
G|-----------------0--------------------0-----|
D|--------2-----------2--------2-----------2--|
A|-----2--------------------2-----------------|
E|--0--------------------0--------------------|

  B
E|--------------------------------------------|
B|-----------5--------------------5-----------|
G|--------------5--------------------5--------|
D|--------5--------5-----------5--------5-----|
A|-----7--------------7-----7--------------7--|
E|--8--------------------8--------------------|

  F#
E|-----------3--------------------3-----------|
B|--------------3--------------------3--------|
G|-----------------4--------------------4-----|
D|--------5-----------5--------5-----------5--|
A|-----5--------------------5-----------------|
E|--3--------------------3--------------------|

  Bb                     B
E|--------------------------------------------|
B|-----------4--------------------5-----------|
G|--------------4--------------------5--------|
D|--------4--------4-----------5--------5-----|
A|--------------------6--------------------7--|
E|--7--7-----------------8--8-----------------|

  Ebm
E|-----------0--------------------0-----------|
B|--------------0--------------------0--------|
G|-----------------0--------------------0-----|
D|--------2-----------2--------2-----------2--|
A|-----2--------------------2-----------------|
E|--0--------------------0--------------------|

  B
E|--------------------------------------------|
B|-----------5--------------------5-----------|
G|--------------5--------------------5--------|
D|--------5--------5-----------5--------5-----|
A|-----7--------------7-----7--------------7--|
E|--8--------------------8--------------------|

  F#
E|-----------3--------------------3-----------|
B|--------------3--------------------3--------|
G|-----------------4--------------------4-----|
D|--------5-----------5--------5-----------5--|
A|-----5--------------------5-----------------|
E|--3--------------------3--------------------|

    Bb                B
E|------------------------------------|
B|------------------------------------|
G|------------------------------------|
D|--4-4-4-4-4-4-4-4--5-5-5-5-5-5-5-5--|
A|--2-2-2-2-2-2-2-2--3-3-3-3-3-3-3-3--|
E|------------------------------------|
        . . . . . .      . . . . . .
  Eb
E|----------------------------------|
B|----------------------------------|
G|----------------------------------|
D|----------------------------------|
A|--2--2-2-2-2-2-2--2--2-2-2-2-2-2--|
E|--0--0-0-0-0-0-0--0--0-0-0-0-0-0--|
       . . . . . .     . . . . . .
  B
E|----------------------------------|
B|----------------------------------|
G|----------------------------------|
D|--5--5-5-5-5-5-5--5--5-5-5-5-5-5--|
A|--3--3-3-3-3-3-3--3--3-3-3-3-3-3--|
E|----------------------------------|
       . . . . . .     . . . . . .
  F#
E|----------------------------------|
B|----------------------------------|
G|----------------------------------|
D|----------------------------------|
A|--5--5-5-5-5-5-5--5--5-5-5-5-5-5--|
E|--3--3-3-3-3-3-3--3--3-3-3-3-3-3--|
       . . . . . .     . . . . . .
    Bb             B      C#
E|-------------------------------|
B|-------------------------------|
G|-------------------------------|
D|--4-4-4-4-4-4-4--5-5-5--7-7-7--|
A|--2-2-2-2-2-2-2--3-3-3--5-5-5--|
E|-------------------------------|
      . . . . . .    . .    . .
    Eb                              B
E|------------------------------------------------------------------|
B|------------------------------------------------------------------|
G|------------------------------------------------------------------|
D|----------------------------------5-5-5--5-5-5-5--5-5-5--5-5-5-5--|
A|--2-2-2--2-2-2-2--2-2-2--2-2-2-2--3-3-3--3-3-3-3--3-3-3--3-3-3-3--|
E|--0-0-0--0-0-0-0--0-0-0--0-0-0-0----------------------------------|
    . . .  . . . .  . . .  . . . .  . . .  . . . .  . . .  . . . .
    B                               Bb B
E|----------------------------------------|  Lead guitar is fiddling around
B|----------------------------------------|  in the Eb pentatonic.
G|----------------------------------------|
D|----------------------------------4--5--|
A|--5-5-5--5-5-5-5--5-5-5--5-5-5-5--2--3--|
E|--3-3-3--3-3-3-3--3-3-3--3-3-3-3--------|
    . . .  . . . .  . . .  . . . .
  Eb
E|-----------0--------------------0--------------0--------------------0-----|
B|--------------0--------------------0--------------0--------------------0--|
G|-----------------0-----------------------------------0--------------------|
D|--------2-----------2--------2--------------2-----------2--------2--------|
A|-----2--------------------2--------------2--------------------2-----------|
E|--0--------------------0--------------0--------------------0--------------|
Not really sure about the picking on this one but i think it is close.
  B
E|--------------------------------------------|
B|-----------5--------------------5-----------|
G|--------------5--------------------5--------|
D|--------5--------5-----------5--------5-----|
A|-----7--------------7-----7--------------7--|
E|--8--------------------8--------------------|
  F#                                          Bb
E|-----------3--------------------3--------------|
B|--------------3--------------------3-----------|
G|-----------------4--------------------4--------|
D|--------5-----------5--------5-----------5--44-|
A|-----5--------------------5-----------------22-|
E|--3--------------------3-----------------------|
                                              ..
  Bb                B
E|----------------------------------|
B|----------------------------------|
G|----------------------------------|
D|--4--4-4-4-4-4-4--5--5-5-5-5-5-5--|
A|--2--2-2-2-2-2-2--3--3-3-3-3-3-3--|
E|----------------------------------|
       . . . . . .     . . . . . .
  Eb
E|----------------------------------|
B|----------------------------------|
G|--4--4-4-4-4-4-4--4--4-4-4-4-4-4--|
D|--2--2-2-2-2-2-2--2--2-2-2-2-2-2--|
A|----------------------------------|
E|----------------------------------|
       . . . . . .     . . . . . .
  B
E|----------------------------------|
B|----------------------------------|
G|----------------------------------|
D|--5--5-5-5-5-5-5--5--5-5-5-5-5-5--|
A|--3--3-3-3-3-3-3--3--3-3-3-3-3-3--|
E|----------------------------------|
       . . . . . .     . . . . . .
  F#
E|----------------------------------|
B|----------------------------------|
G|----------------------------------|
D|----------------------------------|
A|--5--5-5-5-5-5-5--5--5-5-5-5-5-5--|
E|--3--3-3-3-3-3-3--3--3-3-3-3-3-3--|
       . . . . . .     . . . . . .
  Bb                B
E|----------------------------------|
B|----------------------------------|
G|----------------------------------|
D|--4--4-4-4-4-4-4--5--5-5-5-5-5-5--|
A|--2--2-2-2-2-2-2--3--3-3-3-3-3-3--|
E|----------------------------------|
       . . . . . .     . . . . . .
    Eb                              B
E|------------------------------------------------------------------|
B|------------------------------------------------------------------|
G|------------------------------------------------------------------|
D|----------------------------------5-5-5--5-5-5-5--5-5-5--5-5-5-5--|
A|--2-2-2--2-2-2-2--2-2-2--2-2-2-2--3-3-3--3-3-3-3--3-3-3--3-3-3-3--|
E|--0-0-0--0-0-0-0--0-0-0--0-0-0-0----------------------------------|
    . . .  . . . .  . . .  . . . .  . . .  . . . .  . . .  . . . .
    F#                              Bb B
E|----------------------------------------|  Lead guitar is fiddling around
B|----------------------------------------|  in the Eb pentatonic.
G|----------------------------------------|
D|----------------------------------4--5--|
A|--5-5-5--5-5-5-5--5-5-5--5-5-5-5--2--3--|
E|--3-3-3--3-3-3-3--3-3-3--3-3-3-3--------|
    . . .  . . . .  . . .  . . . .
  Eb
E|-----------0--------------------0--------------------0--------------------0-----------|
B|--------------0--------------------0--------------------0--------------------0--------|
G|-----------------0--------------------0--------------------0--------------------0-----|
D|--------2-----------2--------2-----------2--------2-----------2--------2-----------2--|
A|-----2--------------------2--------------------2--------------------2-----------------|
E|--0--------------------0--------------------0--------------------0--------------------|
  Ab                               Eb
E|-----------------------------------------------------------------|
B|-----------------------------------------------------------------|
G|-----------------------------------------------------------------|
D|-2--2-2-2-2-2-2--2--2-2-2-2-2-2----------------------------------|
A|-0--0-0-0-0-0-0--0--0-0-0-0-0-0--2--2-2-2-2-2-2--2--2-2-2-2-2-2--|
E|---------------------------------0--0-0-0-0-0-0--0--0-0-0-0-0-0--|
      . . . . . .     . . . . . .     . . . . . .     . . . . . .   Repeat 3 times.
  F#
E|-----------3--------------------3-----------|
B|--------------3--------------------3--------|
G|-----------------4--------------------4-----|
D|--------5-----------5--------5-----------5--|
A|-----5--------------------5-----------------|
E|--3--------------------3--------------------|
  Bb               B
E|---------------------------------|
B|---------------------------------|
G|---------------------------------|
D|-4-4-4-4-4-4-4-4-5-5-5-5-5-5-5-5-|
A|-2-2-2-2-2-2-2-2-3-3-3-3-3-3-3-3-|
E|---------------------------------|
   . . . . . . . . . . . . . . . .
Rhythm under solo 1:
  Eb                               B                               F#
E|------------------------------------------------------------------------------------------------|
B|------------------------------------------------------------------------------------------------|
G|------------------------------------------------------------------------------------------------|
D|---------------------------------5-5-5--5-5-5-5--5-5-5--5-5-5-5---------------------------------|
A|-2-2-2--2-2-2-2--2-2-2--2-2-2-2--3-3-3--3-3-3-3--3-3-3--3-3-3-3--5-5-5--5-5-5-5--5-5-5--5-5-5-5-|
E|-0-0-0--0-0-0-0--0-0-0--0-0-0-0----------------------------------3-3-3--3-3-3-3--3-3-3--3-3-3-3-|
   . . .  . . . .  . . .  . . . .  . . .  . . . .  . . .  . . . .  . . .  . . . .  . . . 
 . . . .
   Bb              B
E|--------------------------------|
B|--------------------------------|
G|--------------------------------|
D|-4-4-4--4-4-4-4--5-5-5--5-5-5-5-|
A|-2-2-2--2-2-2-2--3-3-3--3-3-3-3-|
E|--------------------------------| Repeat Rhythm section 3 times.
   . . .  . . . .  . . .  . . . .
  Eb
E|-----------0--------------------0--------------------0--------------------0-----------|
B|--------------0--------------------0--------------------0--------------------0--------|
G|-----------------0--------------------0--------------------0--------------------0-----|
D|--2-----2-----------2--------2-----------2--------2-----------2--------2-----------2--|
A|--2--2--------------------2--------------------2--------------------2-----------------|
E|--0--------------------0--------------------0--------------------0--------------------|
  Ab                               Eb
E|-----------------------------------------------------------------|
B|-----------------------------------------------------------------|
G|-----------------------------------------------------------------|
D|-2--2-2-2-2-2-2--2--2-2-2-2-2-2----------------------------------|
A|-0--0-0-0-0-0-0--0--0-0-0-0-0-0--2--2-2-2-2-2-2--2--2-2-2-2-2-2--|
E|---------------------------------0--0-0-0-0-0-0--0--0-0-0-0-0-0--|
      . . . . . .     . . . . . .     . . . . . .     . . . . . .   Repeat 3 times.
  F#
E|-----------3--------------------3-----------|
B|--------------3--------------------3--------|
G|-----------------4--------------------4-----|
D|--------5-----------5--------5-----------5--|
A|-----5--------------------5-----------------|
E|--3--------------------3--------------------|
  Bb               B
E|---------------------------------|
B|---------------------------------|
G|---------------------------------|
D|-4-4-4-4-4-4-4-4-5-5-5-5-5-5-5-5-|
A|-2-2-2-2-2-2-2-2-3-3-3-3-3-3-3-3-|
E|---------------------------------|
   . . . . . . . . . . . . . . . .
Rhythm under solo 2:
  Eb                               B                               F#
E|------------------------------------------------------------------------------------------------|
B|------------------------------------------------------------------------------------------------|
G|------------------------------------------------------------------------------------------------|
D|---------------------------------5-5-5--5-5-5-5--5-5-5--5-5-5-5---------------------------------|
A|-2-2-2--2-2-2-2--2-2-2--2-2-2-2--3-3-3--3-3-3-3--3-3-3--3-3-3-3--5-5-5--5-5-5-5--5-5-5--5-5-5-5-|
E|-0-0-0--0-0-0-0--0-0-0--0-0-0-0----------------------------------3-3-3--3-3-3-3--3-3-3--3-3-3-3-|
   . . .  . . . .  . . .  . . . .  . . .  . . . .  . . .  . . . .  . . .  . . . .  . . . 
 . . . .
   Bb              B
E|--------------------------------|----|
B|--------------------------------|----|
G|--------------------------------|----|
D|-4-4-4--4-4-4-4--5-5-5--5-5-5-5-|-2--|
A|-2-2-2--2-2-2-2--3-3-3--3-3-3-3-|-2--|
E|--------------------------------|-0--| Repeat Rhythm section 2 times.
                                    |
  Eb                                Only last time.
E|-----------0-----------|
B|--------------0--------|
G|-----------------0-----|
D|--------2-----------2--|
A|-----2-----------------|
E|--0--------------------| Repeat 10 times.
  B
E|--------------------------------------------|
B|-----------5--------------------5-----------|
G|--------------5--------------------5--------|
D|--------5--------5-----------5--------5-----|
A|-----7--------------7-----7--------------7--|
E|--8--------------------8--------------------|
  F#                                          Bb
E|-----------3--------------------3--------------|
B|--------------3--------------------3-----------|
G|-----------------4--------------------4--------|
D|--------5-----------5--------5-----------5--44-|
A|-----5--------------------5-----------------22-|
E|--3--------------------3-----------------------|
                                              ..
  Bb                B
E|------------------------------------|
B|------------------------------------|
G|------------------------------------|
D|--4-4-4-4-4-4-4-4--5-5-5-5-5-5-5-5--|
A|--2-2-2-2-2-2-2-2--3-3-3-3-3-3-3-3--|
E|------------------------------------|
        . . . . . .      . . . . . .
  Eb
E|----------------------------------|
B|----------------------------------|
G|--4--4-4-4-4-4-4--4--4-4-4-4-4-4--|
D|--2--2-2-2-2-2-2--2--2-2-2-2-2-2--|
A|----------------------------------|
E|----------------------------------|
       . . . . . .     . . . . . .
  B
E|----------------------------------|
B|----------------------------------|
G|----------------------------------|
D|--5--5-5-5-5-5-5--5--5-5-5-5-5-5--|
A|--3--3-3-3-3-3-3--3--3-3-3-3-3-3--|
E|----------------------------------|
       . . . . . .     . . . . . .
  F#
E|----------------------------------|
B|----------------------------------|
G|----------------------------------|
D|----------------------------------|
A|--5--5-5-5-5-5-5--5--5-5-5-5-5-5--|
E|--3--3-3-3-3-3-3--3--3-3-3-3-3-3--|
       . . . . . .     . . . . . .
  Bb               B
E|--------------------------------|
B|--------------------------------|
G|--------------------------------|
D|-4-4-4--4-4-4-4--5-5-5--5-5-5-5-|
A|-2-2-2--2-2-2-2--3-3-3--3-3-3-3-|
E|--------------------------------|
    Eb                              B
E|------------------------------------------------------------------|
B|------------------------------------------------------------------|
G|------------------------------------------------------------------|
D|----------------------------------5-5-5--5-5-5-5--5-5-5--5-5-5-5--|
A|--2-2-2--2-2-2-2--2-2-2--2-2-2-2--3-3-3--3-3-3-3--3-3-3--3-3-3-3--|
E|--0-0-0--0-0-0-0--0-0-0--0-0-0-0----------------------------------|
    . . .  . . . .  . . .  . . . .  . . .  . . . .  . . .  . . . .
    F#                              Bb B
E|----------------------------------------|
B|----------------------------------------|
G|----------------------------------------|
D|----------------------------------4--5--|
A|--5-5-5--5-5-5-5--5-5-5--5-5-5-5--2--3--|
E|--3-3-3--3-3-3-3--3-3-3--3-3-3-3--------|
    Eb                              B
E|------------------------------------------------------------------|
B|------------------------------------------------------------------|
G|------------------------------------------------------------------|
D|----------------------------------5-5-5--5-5-5-5--5-5-5--5-5-5-5--|
A|--2-2-2--2-2-2-2--2-2-2--2-2-2-2--3-3-3--3-3-3-3--3-3-3--3-3-3-3--|
E|--0-0-0--0-0-0-0--0-0-0--0-0-0-0----------------------------------|
    . . .  . . . .  . . .  . . . .  . . .  . . . .  . . .  . . . .
    F#                              Bb B
E|-------------------------------------------|
B|-------------------------------------------|
G|-------------------------------------------|
D|----------------------------------4--5--2--|
A|--5-5-5--5-5-5-5--5-5-5--5-5-5-5--2--3--2--|
E|--3-3-3--3-3-3-3--3-3-3--3-3-3-3--------0--|
    . . .  . . . .  . . .  . . . .

By:themechanix100
Добавлено: 28.07.2013
Другие материалы по этой песне:
  • Аккорды и текст

Страница создана 28.07.2013
http://primanota.ru/vit-legion/farval-chords.htm
Привет, Гость.
Предлагаем пройти революционный курс по гитаре.
Подарок от PrimaNota.Ru, забирай!