PrimaNota.ru - самый крупный в мире бесплатный архив песенных текстов, аккордов, табулатур и нот


Vista Chino - Dargona Dragona - таба, видео

Регистрация Запомнить меня
Войти через:  Facebook Google Twitter Vk Yandex Mail.ru

Vista Chino - Dargona Dragona - таба, видео

Печатать
Просмотров: 63
Vista Chino

Dargona Dragona

Tabbed by:Brownbear93

C F Bb Eb G C

Check out the bands website here:http://www.vistachinomusic.com/
Intro:
                  x20                                                  x3
|--------------------|---------------------------------------------------|
|--------------------|---------------------------------------------------|
|--------------------|---------------------------------------------------|
|--------------------|---------------------------------------------------|
|--------------------|--17-17171717-16-16161616-15-15151515-14-14141414--|
|--12p0-0-0-10h12-12-|--15-15151515-14-14141414-13-13131313-12-12121212--|

|----------------------------------------------------------------|
|----------------------------------------------------------------|
|----------------------------------------------------------------|
|----------------------------------------------------------------|
|--17-17171717-16-16161616-15-1515151515151515151515151515151515-|
|--15-15151515-14-14141414-13-1313131313131313131313131313131313-|


Riff:                                   x4
|-----------------------------------------|
|-----------------------------------------|
|-----------------------------------------|
|----7/9-9--7/9-9-------------------------|
|----5/7-7--5/7-7---10--101010--4--444----|
|--------------------8---8-8-8--2--222----|


Verse:                                 x4
|-----------------------------------------|
|-----------------------------------------|
|-----------------------------------------|
|----7/9-9--7/9-9--------------11-111111--|
|----5/7-7--5/7-7---10--101010--9--9-9-9--|
|--------------------8---8-8-8------------|


Bridge:
                                 x2
|-----------------------------------|----------------------------------------|
|-----------------------------------|----------------------------------------|
|-----------------------------------|----------------------------------------|
|---9\-----------------------11-777-|--9\--------------------------11-777----|
|---7\--0h5h7-7~---10-101010--9-555-|--7\--0h5h7-7b-7~---10-101010--9-555----|
|-------------------8--8-8-8--------|---------------------8--8-8-8-----------|
   
                                                      x8
|-----------------------------------|--------------------|
|-----------------------------------|--------------------|
|-----------------------------------|--------------------|
|---9\-----------------------11-777-|--------------------|
|---7\--0h5h7-7~---10-101010--9-555-|--------------------|
|-------------------8--8-8-8--------|--12p0-0-0-10h12-12-|

Riff

Verse

Bridge


Solo:
|-------------------------------------------------------------------------------|
|-------------------------------------------------------------------------------|
|---------16-18p16----------16-18p16----------16-18p16----18b-18b---16h18p16~---|
|---16h17----------17-16h17----------17-16h17----------17-----------------------|
|-------------------------------------------------------------------------------|
|-------------------------------------------------------------------------------|

|--------------------------------------------------------------------|
|--------------------------------------------------------------------|
|---------16-18p16----------16-18p16----------16-18p16---------------|
|---16h17----------17-16h17----------17-16h17----------17-16~--------|
|--------------------------------------------------------------------|
|--------------------------------------------------------------------|

|-----------------------------------------------------------------------------------------------|
|-----------------------------------------------------------------------------------------------|
|---------16-18p16----------16-18p16----------16-18p16----19p16----18p16----18b-18b--16h18p16~--|
|---16h17----------17-16h17----------17-16h17----------17-------17-------17---------------------|
|-----------------------------------------------------------------------------------------------|
|-----------------------------------------------------------------------------------------------|

|--------------------------------------------------------------------|
|--------------------------------------------------------------------|
|---------16-18p16----------16-18p16----------16-18p16---------------|
|---16h17----------17-16h17----------17-16h17----------17-15~--------|
|--------------------------------------------------------------------|
|--------------------------------------------------------------------|


|------------------------------------------------------------------------------------|
|------15h17-17b-----15-17p15-17-17b----15-17b-17-15-17b-17~-------------------------|
|---16------------------------------------------------------------------12h14-14b~---|
|-----------------------------------------------------------------12/14--------------|
|------------------------------------------------------------------------------------|
|------------------------------------------------------------------------------------|

|-----------------------------------------------15-17b~--(17)r-15-17br-b---15-17b-17-15------------|
|-----------------------------------------15h17-----------------------------------------17b~--r-17-|
|--14-12-14b-14--b-r-12h14p12\11~-----/16----------------------------------------------------------|
|--------------------------------------------------------------------------------------------------|
|--------------------------------------------------------------------------------------------------|
|--------------------------------------------------------------------------------------------------|

|---------------------------------------------------------------------------|
|---------------------------------------------------------------------------|
|--------12h14-14b~---14-12-14b--r-12h14p12\11~-----------------------------|
|--12/14------------------------------------------------------------14~-----|
|---------------------------------------------------------------------------|
|---------------------------------------------------------------------------|

Riff

Verse

Bridge

Ends on:
|--------|
|--------|
|--------|
|---9----|
|---7----|
|---0----|



************************************

| /   slide up
| \   slide down
| h   hammer-on
| p   pull-off
| ~   vibrato
| +   harmonic
| x   Mute note
| b   Bend
| pb  Pre-bend
| br  Bend release
| pbr Pre-bend release
| brb Bend release bend
| ()  Strike note while string is bent


************************************
Добавлено: 02.10.2013
Другие материалы по этой песне:
  • Аккорды и текст

Страница создана 02.10.2013
http://primanota.ru/vista-chino/dargona-dragona-chords.htm
Привет, Гость.
Предлагаем пройти революционный курс по гитаре.
Подарок от PrimaNota.Ru, забирай!