PrimaNota.ru - самый крупный в мире бесплатный архив песенных текстов, аккордов, табулатур и нот


Vision Of Disorder - Imprint - текст песни, таба, видео

Регистрация Запомнить меня
Войти через:  Facebook Google Twitter Vk Yandex Mail.ru

Vision Of Disorder - Imprint - текст песни, таба, видео

Печатать
Просмотров: 231
Band- Vision Of Disorder
Song- Imprint

Tune D G C F A D (Down a tone)

Intro (riff 1) , play clean first time
D---------------------------------------|
A---------------------------------------|
F---------------------------------------|
C---------------------------------------|
G--2-2-2-8--8---8-8--8-8-8-8--8-8-8-8---|
D--0-0-0-6--6-0-6-6--6-6-6-6--6-6-6-6---|

Riff2

D---------------------------|
A---------------------------|
F---------------------------|
C---------------------------|
G-2-x-x-8-x-8-7--10---8\7---|
D-0-x-x-6-x-6-5--8----6\5---|

Riff 3 (similar to riff 2)

D-----------------------------|
A-----------------------------|
F-----------------------------|
C-----------------------------|
G-2-x-x-8-x-8-7--12----10\9---|
D-0-x-x-6-x-6-5--10----8-\7---|

Fill 1

D-------------   or    -------------|
A-------------         -------------|
F-------------         -------------|
C-------------         --7----x-\---|
G---12---x-\--         --5----x-\---|
D---10---x-\--         -------------|

Riff 4

D--------------------------------------|
A--------------------------------------|
F--------------------------------------|
C--------------------------------------|
G-2-2-2-2--x-x-x-x--2-2-x-x--2-2-x-x---|
D-0-0-0-0--2-3-3-3--0-0-2-3--0-0-2-3---|
p.m. ----------------------------------|

2nd guitar does some stuff with a wah over the top from the 5th time onwards

D-----------------------|
A-x-x-12-14-15-15-------|
F-x-x-12-----12---------|
C-----------------------|
G-----------------------|
D-----------------------|

Back to Riff 1 then riff 2 again

Riff 5 "I slipped again…"

D-----------------|-------------------|
A----------5------|-------------5-----|
F----------5------|---------6---5-----|
C--5----4--5------|-5-----4-----5-----|
G--5----4--3------|-5-----4-----3-----|
D----------3------|-------------3-----|

Fill 2

D--x----x---|
A--x----x---|
F--x----x---|
C--x----x---|
G--x----x---|
D--x----x---|

repeat riff 4

Riff 6 (I'll tear you apart…"

D---------------------------------|---------------------------------------|
A---------------------------------|---------------------------------------|
F---------------------------------|---------------------------------------|
C---------------------------------|------------------------8-8-8--8-------|
G-9-9-9-6-6-6-9-9-9-6-6-6-9-9-9-9-|-9\8-8-8-8\7-7-7-7-7--7-6-6-6--6-6-6-6-|
D-7-7-7-4-4-4-7-7-7-4-4-4-7-7-7-7-|-7\6-6-6-6\5-5-5-5-5--5----------4-4-4-|


Riff 7

D-----------------------|---------------------------------------|
A-4-------4------4------|---------------------------------------|
F-4-------4------4------|---------------------------------------|
C-4--x----4--x---4------|------------------------8-8-8--8-------|
G-2--x----2--x---2--9-9-|-9\8-8-8-8\7-7-7-7-7--7-6-6-6--6-6-6-6-|
D-2--x-4--2--x-4-2--7-7-|-7\6-6-6-6\5-5-5-5-5--5----------4-4-4-|


Back to riff 1

Riff 8
This is very tricky to do at speed with normal "A" shape bar chords,
so I've tabbed this with the 5th on the low D and the root on the G.
Emphasise the root when picking and you can get away with it. Anyway...

D------------------------------------|
A------------------------------------|
F------------------------------------|
C------------------------------------|
G--5--4-5--x-7-8-7--x-6-7-6--x-6-8-6-|
D--5--4-5--x-7-8-7--x-6-7-6--x-6-8-6-|
       h.     h. po    h. p etc

4th time goes something like this
D------------------------------------|
A------------------------------------|
F------------------------------------|
C------------------------------------|
G--5--4-5--x-7-8-7--x-6-8-7--6-------|
D--5--4-5--x-7-8-7--x-6-8-7--6-------|

Riff 9 ("I'll always know where you sleep")

This is slightly unclear on the recording, but sounds alright if
played like this:

D------------|-----------|
A--7---------|-7---------|
F--7---------|-7-------9-|
C--7---------|-7---------|
G--5---------|-5-------7-|
D--------4---|-----4-----|

Then finish with

D----------------|
A----------------|
F--7-7-6-7-\-----|
C--7-7-6-7-\-----|
G--5-5-4-5-\-----|
D--5-5-4-5-\-----|
Добавлено: 19.06.2012
Другие материалы по этой песне:
  • Аккорды и текст

Страница создана 14.03.2012
http://primanota.ru/vision-of-disorder/imprint-chords.htm
Привет, Гость.
Предлагаем пройти революционный курс по гитаре.
Подарок от PrimaNota.Ru, забирай!