PrimaNota.ru - самый крупный в мире бесплатный архив песенных текстов, аккордов, табулатур и нот


Visceral Bleeding - When Pain Came To Town - текст песни, таба, видео

Регистрация Запомнить меня
Войти через:  Facebook Google Twitter Vk Yandex Mail.ru

Visceral Bleeding - When Pain Came To Town - текст песни, таба, видео

Печатать
Просмотров: 91
Visceral Bleeding - 'When Pain Came To Town'
Trascend Into Ferocity (2004)
Neurotic Records


________________________________________________________________________________


Words and Music by Peter Persson

Gtr I (B E A D F# B) - 'Peter Persson'
Gtr II (B E A D F# B) - 'Marcus Nilsson'


 Drum Intro (0:00)
  Q=300
 4/4
  Gtrs I, II
                             PM
  W          W          H    Q  Q    W          W
|----------|----------|------------|----------|------|
|----------|----------|------------|----------|------|
|----------|----------|------------|----------|------|
|----------|----------|------------|----------|------|
|----------|----------|------3-----|----------|------|
|----------|----------|------1-----|----------|------|


 Riff 1 (0:05)
  Gtrs I, II
  PM------------------------|             PM------------------------------|
  E E E E E E E E   E E E E Q   Q         E E E E E E E E   E E E E E E E E
|-----------------|---------------------|-----------------|-----------------|
|-----------------|---------------------|-----------------|-----------------|
|-----------------|---------------------|-----------------|-----------------|
|-----------------|---------3--[3]b3.5--|-----------------|-----------------|
|-1-1-2-2-5-5-4-4-|-2-2-1-1-1-----------|-1-1-2-2-5-5-4-4-|-2-2-1-1---------|
|-----------------|---------------------|-----------------|---------0-0-1-1-|


  Gtrs I, II
  PM------------------------|             PM------------------------|
  E E E E E E E E   E E E E Q   Q         E E E E E E E E   E E E E Q  Q
|-----------------|---------------------|-----------------|---------------|
|-----------------|---------------------|-----------------|---------------|
|-----------------|---------------------|-----------------|---------------|
|-----------------|---------3--[3]b3.5--|-----------------|---------3-----|
|-1-1-2-2-5-5-4-4-|-2-2-1-1-1-----------|-1-1-2-2-5-5-4-4-|-2-2-1-1-1-----|
|-----------------|---------------------|-----------------|---------------|


  Gtrs I, II
  PM          PM---------------|
  Q   Q       E E E E   Q   Q  Q   Q
|---------------------|--------------------|
|---------------------|--------------------|
|---------------------|--------------------|
|---------------------|--------------------|
|-6--[7]b7.5--6-6-6-6-|-9--10--7--[7]b7.5--|
|-4-----------4-4-4-4-|-7---8--5-----------|


 Riff 2 (0:12)
  Gtrs I, II
  PM------------------------------------------------|
  E E E E E E E E   E E E E E E E E   E E E E E E E E
|-----------------|-----------------|-----------------|
|-----------------|-----------------|-----------------|
|-----------------|-----------------|-----------------|
|-----------------|-----------------|-----------------|
|-----------------|-7-7-------------|-----------------|
|-5-5-7-7-5-5-4-4-|-----5-5-4-4-5-5-|-0-0-0-0-0-0-0-0-|


    Gtr I
    PM------------|
    E E E E E E E E   E E E E E E E E
||------------------|-----------------|
||o-----------------|-----------------|
||------------------|-----------------|
||------------------|-----------------|
||o-----------------|-6p3h6p3-5p2h5p2-|
||--5-5-7-7-5-5-4-4-|-----------------|
|
|   Gtr II
|   PM------------|
|   E E E E E E E E   E E E E E E E E
||------------------|-----------------|
||o-----------------|-----------------|
||------------------|-----------------|
||------------------|-----------------|
||o-----------------|-9p6h9p6-8p5h8p5-|
||--5-5-7-7-5-5-4-4-|-----------------|


  PM------------------------------------------------|
  E E E E E E E E   E E E E E E E E   E E E E E E E E
|-----------------|-----------------|-------------------|
|-----------------|-----------------|-------------------|
|-----------------|-----------------|-------------------|
|-----------------|-----------------|-------------------|
|-----------------|-7-7-------------|-------------------|
|-5-5-7-7-5-5-4-4-|-----5-5-4-4-5-5-|-0-0-0-0-0-0-0-0---|
|
| PM------------------------------|
| E E E E E E E E   E E E E E E E E   W
|-----------------|-----------------|-------------------|
|-----------------|-----------------|-------------------|
|-----------------|-----------------|-------------------|
|-----------------|-----------------|-------------------|
|-----------------|-7-7-------------|-------------------|
|-5-5-7-7-5-5-4-4-|-----5-5-4-4-5-5-|-------------------|


  Gtr I
  E E E E E E E E   E E Q  E E Q
|-----------------|---------------|
|-----------------|---------------|
|-----------------|---------------|
|-----------------|-2-2-2--1-1-1--|
|-----------------|-4-4----3-3----|
|-3p0h3p0-2p0h6p2-|---------------|
|
| Gtr II
| E E E E E E E E   E E Q  E E Q
|-----------------|---------------|
|-----------------|---------------|
|-----------------|---------------|
|-----------------|-5-5-5--4-4-4--|
|-----------------|-7-7----6-6----|
|-3p0h3p0-2p0h2p0-|---------------|


  E E E E E E E E   E E Q  E E Q    E E Q  E E Q
|-----------------|---------------|---------------|
|-----------------|---------------|---------------|
|-----------------|---------------|---------------|
|-----------------|-2-2-2--1-1-1--|-5-5-5--4-4-4--|
|-----------------|-4-4----3-3----|-7-7----6-6----|
|-3p0h3p0-2p0h6p2-|---------------|---------------|
|
| E E E E E E E E   E E Q  E E Q    E E Q  E E Q
|-----------------|---------------|---------------|
|-----------------|---------------|---------------|
|-----------------|---------------|-3-3-3--2-2-2--|
|-----------------|-5-5-5--4-4-4--|-5-5----4-4----|
|-----------------|-7-7----6-6----|---------------|
|-3p0h3p0-2p0h2p0-|---------------|---------------|


  1.
                                     3/4
  Gtr I
  PM------------------------------|
  E E E E E E E E   E E E E E E E E   E E E E E E   E E E E E E
|-----------------|-----------------|-------------|--------------||
|-----------------|-----------------|-------------|-------------o||
|-----------------|-----------------|-------------|--------------||
|-----------------|-----------------|-------------|--------------||
|-----------------|-7-7-------------|-4h5h6p4-4h5h|=6p4-5h6h7p4-o||
|-5-5-7-7-5-5-4-4-|-----5-5-4-4-5-5-|-------------|--------------||
|
| Gtr II
| PM------------------------------|
| E E E E E E E E   E E E E E E E E   E E E E E E   E E E E E E
|-----------------|-----------------|-------------|--------------||
|-----------------|-----------------|-------------|-------------o||
|-----------------|-----------------|-------------|--------------||
|-----------------|-----------------|-4h5h6p4-4h5h|=6p4-5h6h7p4--||
|-----------------|-7-7-------------|-------------|-------------o||
|-5-5-7-7-5-5-4-4-|-----5-5-4-4-5-5-|-------------|--------------||


 Riff 3 (0:33)
  2.
 4/4
  Gtr I
              PM--------------------|          PM          PM
  H    H      E E E E E E E E   E E Q  Q  Q    Q   Q       Q   Q
|-----------|-----------------|--------------|--------------------------|
|-----------|-----------------|--------------|--------------------------|
|-----------|-----------------|--------------|--------------------------|
|-----------|---------3-6-0-3-|--------4--4--|-1--[5]b5.5-----[6]b6.5---|
|-4----3----|-0-4-5-8---------|-4-5-4--2--2--|-3-----------4------------|
|-2----1----|-----------------|-2-3-2--------|--------------------------|
|
| Gtr II
|             PM----|     PM|                              PM
| H    H      E E E E E E E E   E E Q  Q  Q    Q   Q       Q   Q
|-----------|-----------------|--------------|--------------------------|
|-----------|-----------------|--------------|--------------------------|
|-----------|-----------------|--------------|----[3]b3.5-----[4]b4.5---|
|-----------|-----3-6-6S9-----|--------4--4--|-------------2------------|
|-4----3----|-2-5---------6-8-|-4S5S4--2--2--|-3-----------4------------|
|-2----1----|-----------------|-2S3S2--------|--------------------------|


  Gtr I
  PM----|            PM|         PM|    PM|
  E E E E Q  Q    Q  E E Q  Q    E E Q  E E Q    E E E E  E  E  E  E
|---------------|--------------|---------------|---------------------|
|---------------|--------------|---------------|---------------------|
|---------------|--------------|---------------|---------------------|
|---------9--8--|-7------6--7--|-----6------5--|----------8--8--7--7-|
|---------7--6--|-5------4--5--|-----4------3--|-4-4-5-5-------------|
|-0-0-0-0-------|----0-0-------|-0-0----0-0----|---------------------|
|
| Gtr II
| PM----|            PM|         PM|    PM|      PM------------|
| E E E E Q  Q    Q  E E Q  Q    E E Q  E E Q    E E E E  E  E  E  E
|---------------|--------------|---------------|---------------------|
|---------------|--------------|---------------|---------------------|
|---------------|--------------|---------------|---------11-11-10-10-|
|---------9--8--|-7------6--7--|-----6------5--|-7-7-8-8-------------|
|---------7--6--|-5------4--5--|-----4------3--|---------------------|
|-6-6-6-6-------|----0-0-------|-0-0----0-0----|---------------------|


  Gtr I
  PM-----------------------|
  E E E E E E E E   E E Q  Q  Q    E E E E E  E E E
|-----------------|--------------|------------------|
|-----------------|--------------|------------------|
|-----------------|--------------|------------------|
|-----------------|--------3--2--|------------------|
|-1-1-2-2-5-5-4-4-|-2-2-1--1-----|-----5h8-8h11-5h8-|
|-----------------|--------------|-5h8--------------|
|
| Gtr II
| PM-----------------------|
| E E E E E E E E   E E Q  Q  Q    E E E E E  E E E
|-----------------|--------------|------------------|
|-----------------|--------------|------------------|
|-----------------|--------------|------------------|
|-----------------|--------3--2--|-----3h6-6h=9-3h6-|
|-1-1-2-2-5-5-4-4-|-2-2-1--1-----|-3h6--------------|
|-----------------|--------------|------------------|


  PM--|                   PM
  E E Q  E E Q    Q   Q   Q  Q
|---------------|-------------------|
|---------------|-------------------|
|---------------|-------------------|
|----------5S4--|-------------------|
|-4-5-4--0h3S2--|-3--[2]--4--3b3.5--|
|-2-3-2---------|---------2---------|
|
| PM--|           PM      PM
| E E Q  E E Q    Q   Q   Q  Q
|---------------|-------------------|
|---------------|-------------------|
|---------------|-------------------|
|----------5S4--|----[2]------------|
|-4S5S4--0h3S2--|-3-------6--3b3.5--|
|-2S3S2---------|---------4---------|


  Gtr I
  PM--|          PM|    PM----|         PM|      PM------------|
  E E Q  Q  Q    E E Q  E E E E   Q  Q  E E Q    E E E E E E E E
|--------------|----------------|--------------|-----------------|
|--------------|----------------|--------------|-----------------|
|--------------|----------------|--------------|---------8-8-7-7-|
|--------9--8--|-----7----------|-6--7------6--|-4-4-5-5---------|
|--------7--6--|-----5----------|-4--5------4--|-----------------|
|-0-0-0--------|-0-0----0-0-0-0-|-------0-0----|-----------------|
|
| Gtr II
| PM--|          PM|    PM----|         PM|      PM------------|
| E E Q  Q  Q    E E Q  E E E E   Q  Q  E E Q    E E E E E E E E
|--------------|----------------|--------------|-----------------|
|--------------|----------------|--------------|-----------------|
|--------------|----------------|--------------|---------3-3-2-2-|
|--------9--8--|-----7----------|-6--7------6--|-4-4-------------|
|--------7--6--|-----5----------|-4--5------4--|-2-2-4-5---------|
|-0-0-0--------|-0-0----0-0-0-0-|-------0-0----|-----------------|


    Gtrs I, II
    PM------------------------|             PM------------------------|
    E E E E E E E E   E E E E Q   Q         E E E E E E E E   E E E E Q  Q
||------------------|---------------------|-----------------|-----------------||
||o-----------------|---------------------|-----------------|----------------o||
||------------------|---------------------|-----------------|-----------------||
||------------------|---------3--[3]b3.5--|-----------------|---------3-------||
||o-1-1-2-2-5-5-4-4-|-2-2-1-1-1-----------|-1-1-2-2-5-5-4-4-|-2-2-1-1-1------o||
||------------------|---------------------|-----------------|-----------------||


 Riff 4 (0:53)
  Gtr I
                 PM-------|           PM            PM------|          PM--|
  Q  Q   Q       Q    E E Q   Q       Q     Q       E E E E Q    Q  Q  E E Q
|-------------------|--------------------|---------------------|--------------|
|-------------------|--------------------|---------------------|--------------|
|-------------------|--------------------|---------------------|--------------|
|-------------------|--------------------|-[3]b3.5-------------|-2S=1---------|
|-6--5--[5]b5.5-----|--------[4]b4.5-----|---------------------|-2S=1---------|
|-4--3-----------2--|-2-2-1-----------2--|----------0-0-0-0-0--|-------0-0-0--|
|
| Gtr II
|                PM-------|           PM            PM------|          PM--|
| Q  Q   Q       Q    E E Q   Q       Q     Q       E E E E Q    Q  Q  E E Q
|-------------------|--------------------|---------------------|--------------|
|-------------------|--------------------|---------------------|--------------|
|-------------------|--------------------|---------------------|--------------|
|-------------------|--------------------|-[3]b3.5-------------|--------------|
|-6--5--[5]b5.5-----|--------[4]b4.5-----|---------------------|-7S=6---------|
|-4--3-----------2--|-2-2-1-----------2--|----------0-0-0-0-0--|-5S=4--0-0-0--|


  Gtr I
                 PM-------|           PM            PM------|           PM--|
  Q  Q   Q       Q    E E Q   Q       Q     Q       E E E E Q    E E Q  E E Q
|-------------------|--------------------|---------------------|---------------|
|-------------------|--------------------|---------------------|---------------|
|-------------------|--------------------|---------------------|---------------|
|-------------------|--------------------|-[3]b3.5-------------|-4S5S4---------|
|-6--5--[5]b5.5-----|--------[4]b4.5-----|---------------------|-2S3S2---------|
|-4--3-----------2--|-2-2-1-----------2--|----------0-0-0-0-0--|--------0-0-0--|
|
| Gtr II
|                PM-------|           PM            PM------|           PM--|
| Q  Q   Q       Q    E E Q   Q       Q     Q       E E E E Q    E E Q  E E Q
|-------------------|--------------------|---------------------|---------------|
|-------------------|--------------------|---------------------|---------------|
|-------------------|--------------------|---------------------|---------------|
|-------------------|--------------------|-[3]b3.5-------------|-4S5S4---------|
|-6--5--[5]b5.5-----|--------[4]b4.5-----|---------------------|-2S3S2---------|
|-4--3-----------2--|-2-2-1-----------2--|----------0-0-0-0-0--|--------0-0-0--|


 Riff 5 (0:59)
  Gtrs I, II
  PM-|     PM--------|  ~  PM--------|  ~  PM--------|     PM
  Q  Q  Q  E E   E E Q  Q  E E   E E Q  Q  E E   E E Q  Q  Q
|--------------|---------------|---------------|--------------|
|--------------|---------------|---------------|--------------|
|--------------|---------------|---------------|--------------|
|--------------|---------------|---------------|--------------|
|-4--3--4------|--------7------|---------------|--------5-----|
|-2--1-----0-0-|-5-4-0-----0-0-|-5-4-0--7--0-0-|-3-2-0-----0--|


  Gtrs I, II
     PM    PM--------|  ~  PM--------|  ~  PM--------|     PM
  Q  Q  Q  E E   E E Q  Q  E E   E E Q  Q  E E   E E Q  Q  Q
|--------------|---------------|---------------|--------------|
|--------------|---------------|---------------|--------------|
|--------------|---------------|---------------|--------------|
|--------------|---------------|---------------|--------------|
|-1-----4------|--------7------|---------------|--------5-----|
|----2-----0-0-|-5-4-0-----0-0-|-5-4-0--7--0-0-|-3-2-0-----0--|


  Gtr I
  PM---------------|        PM----------|           PM            PM-----|
  Q  Q  Q  Q    Q  Q   E  E E E   +E  E Q   Q       Q     Q       E Q  E Q
|-------------|-----------------|----------------------|--------------------|
|-------------|-----------------|----------------------|--------------------|
|-------------|-----------------|----------------------|--------------------|
|-1-----------|-1-----[2]s1-----|----------------------|-[3]b3.5------------|
|-1--2--1--2--|-1--2------------|----------[4]b4.5-----|--------------------|
|----2--1--2--|----2--------2-3-|-(3)-3-2-----------2--|----------0-0--0-0--|
|
| Gtr II
| PM---------------|
| Q  Q  Q  Q    Q  Q   H           W                      W
|-------------|-----------------|----------------------|--------------------|
|-------------|-----------------|----------------------|--------------------|
|-------------|-----------------|----------------------|--------------------|
|-3-----------|-3---------------|----------------------|--------------------|
|-1--4--3--4--|-1--4------------|----------------------|--------------------|
|----2--1--2--|----2------------|----------------------|--------------------|


 Riff 6 (1:08)
  Gtr I
                 PM--------|           PM
  Q  Q   Q       E E   E E Q   Q       Q
|--------------------|--------------------|
|--------------------|--------------------|
|--------------------|--------------------|
|-2--1---------------|--------------------|
|-------[5]b5.5------|--------[4]b4.5-----|
|----------------2-2-|-2-2-1-----------2--|
|
| Gtr II
|                PM--------|           PM
| Q  Q   Q       E E   E E Q   Q       Q
|--------------------|--------------------|
|--------------------|--------------------|
|--------------------|--------------------|
|-8--6---------------|--------[2]b2.5-----|
|-7--5--[5]b5.5------|--------------------|
|----------------2-2-|-2-2-1-----------1--|


           PM------|           PM----|
   Q       E E E E Q    E E Q  E E E E
|---------------------|----------------|
|---------------------|----------------|
|---------------------|----------------|
|-[3]b3.5-------------|-4S5S4----------|
|---------------------|-2S3S2----------|
|----------0-0-0-0-0--|--------5-5-4-4-|
|
|          PM------|           PM----|
|  Q       E E E E Q    Q   Q  E E E E
|---------------------|----------------|
|---------------------|----------------|
|---------------------|----------------|
|-[3]b3.5-------------|-8S==7----------|
|---------------------|-7S==6----------|
|----------2-1-0-0-0--|--------0-0-0-0-|


  Gtr I
  PM-|           PM--------|           PM
  Q  Q   Q       Q     Q   Q   Q       Q
|--------------------|--------------------|
|--------------------|--------------------|
|--------------------|--------------------|
|--------------------|--------------------|
|-4--3--[5]b5.5------|--------[4]b4.5-----|
|-2--1-----------2---|-3---2-----------2--|
|
| Gtr II
|                PM--------|           PM
| Q  Q   Q       E E   E E Q   Q       Q
|--------------------|--------------------|
|--------------------|--------------------|
|--------------------|--------------------|
|--------------------|--------------------|
|-6--5--[5]b5.5------|--------[4]b4.5-----|
|-8--6-----------2-3-|-2-1-2-----------2--|


           PM------|           PM----|
   Q       Q   Q   Q    E E Q  E E E E
|---------------------|----------------|
|---------------------|----------------|
|---------------------|----------------|
|-[3]b3.5-------------|-4S5S4----------|
|---------------------|-2S3S2----------|
|----------0---0---0--|--------5-5-4-4-|
|
|          PM------|           PM--|
|  Q       E E E E Q    E E Q  Q   Q
|---------------------|----------------|
|---------------------|----------------|
|-[5]b5.5-------------|----------------|
|---------------------|-4S5S4----------|
|---------------------|-2S3S2--2---3---|
|----------2-3-2-1-2--|--------0---1---|


 4/4
  Gtr I
        PM--------------------|          PM            PM          PM----|
  Q  Q  E E E E   E E E E E E Q    Q  Q  Q   Q         Q   Q       E E E E
|---------------|----------------|-------------------|----------------------|
|---------------|----------------|-------------------|----------------------|
|---------------|----------------|-------------------|----------------------|
|---------------|-3-6-0-3--------|-4--4--1--[5]b5.5--|----[6]b6.5-----------|
|-4--3--0-4-5-8-|---------4-5-4--|-2--2--3-----------|-4--------------------|
|-2--1----------|---------2-3-2--|-------------------|-------------0-0-0-0--|
|
| Gtr II
|       PM----|       PM|                              PM          PM----|
| Q  Q  E E E E   E E E E E E Q    Q  Q  Q   Q         Q   Q       E E E E
|---------------|----------------|-------------------|----------------------|
|---------------|----------------|-------------------|----------------------|
|---------------|----------------|----------[3]b3.5--|----[4]b4.5-----------|
|-----------3-6-|-6S9------------|-4--4--------------|-2--------------------|
|-4--3--2-5-----|-----6-8-4S5S4--|-2--2--3-----------|-4--------------------|
|-2--1----------|---------2S3S2--|-------------------|-------------6-6-6-6--|


  Gtr I
           PM|         PM|      PM|
  Q  Q  Q  E E   Q  Q  E E Q    E E Q  H
|--------------|--------------|-------------|
|--------------|--------------|-------------|
|--------------|--------------|-------------|
|-9--8--7------|-6--7------6--|-----5-------|
|-7--6--5------|-4--5------4--|-----3-------|
|----------0-0-|-------0-0----|-0-0---------|
|
| Gtr II
|          PM|         PM|      PM|
| Q  Q  Q  E E   Q  Q  E E Q    E E Q  H
|--------------|--------------|-------------|
|--------------|--------------|-------------|
|--------------|--------------|-------------|
|-9--8--7------|-6--7------6--|-----5-------|
|-7--6--5------|-4--5------4--|-----3-------|
|----------0-0-|-------0-0----|-0-0---------|


   Riff 7 (1:20)
    Gtr I
    PM--|                PM--|       ~           PM        PM--|
    E E Q  Q  Q    Q  Q  E E Q    Q  H     E E   Q   Q     E E Q
||---------------|--------------|--------------|-------------------|
||o--------------|--------------|--------------|-------------------|
||---------------|--------------|--------------|-------------------|
||---------3S=4--|-3S=4---------|-2------------|-------------------|
||o--------2S=3--|-2S=3---------|----1-----2p1-|-5---5-------------|
||--1-0-0--------|-------0-0-0--|--------------|-3---------0-0-0---|
|
|   Gtr II
|   PM--|                PM--|                   PM        PM--|
|   E E Q  Q  Q    Q  Q  E E Q    Q  Q  Q  Q     Q   Q     E E Q
||---------------|--------------|--------------|-------------------|
||o--------------|--------------|--------------|-------------------|
||---------------|--------------|-3------------|-------------------|
||---------3S=4--|-3S=4---------|----2--0--6---|----[4]b5----------|
||o--------2S=3--|-2S=3---------|--------------|-5-----------------|
||--1-0-0--------|-------0-0-0--|--------------|-3---------0-0-0---|


  Gtr I
           PM------|             PM-|
  Q  Q  Q  Q    Q  Q  Q  Q    Q  Q  Q   Q
|-------------|-------------|--------------------||
|-------------|-------------|-------------------o||
|-------------|-------------|--------------------||
|-3S=4--3-----|-------7--5--|-4------------------||
|-2S=3--2-----|-5-----5--3--|-2--0--4---2b2.5---o||
|----------0--|-6--6--------|-------2------------||
|
| Gtr II
|          PM------|          ~  PM-|
| Q  Q  Q  Q    Q  Q  Q  Q    Q  Q  Q   Q
|-------------|-------------|--------------------||
|-------------|-------------|-------------------o||
|-------------|-------------|--------------------||
|-3S=4--3-----|-------------|----------[7]b7.5---||
|-2S=3--2-----|-5--4--4--2--|-------4-----------o||
|----------0--|-6--5--------|-6--0--2------------||


 3/4
  Gtr I
  PM---------------|
  E E E E Q     Q  Q   Q
|------------|-----------------|
|------------|-----------------|
|------------|-----------------|
|------------|-----------------|
|---------9--|-10--6---6b6.5---|
|-4-4-4-4-7--|--8--4-----------|
|
| Gtr II
| PM---------------|
| E E E E Q     Q  Q   Q
|------------|-----------------|
|------------|-----------------|
|------------|-----------------|
|------------|-----8--[8]b8.5--|
|---------9--|-10--6-----------|
|-4-4-4-4-7--|--8--------------|


 Riff 2 (1:32)
 4/4
  Gtrs I, II
  PM------------------------------------------------|
  E E E E E E E E   E E E E E E E E   E E E E E E E E
|-----------------|-----------------|-----------------|
|-----------------|-----------------|-----------------|
|-----------------|-----------------|-----------------|
|-----------------|-----------------|-----------------|
|-----------------|-7-7-------------|-----------------|
|-5-5-7-7-5-5-4-4-|-----5-5-4-4-5-5-|-0-0-0-0-0-0-0-0-|


    Gtr I
    PM------------|
    E E E E E E E E   E E E E E E E E
||------------------|-----------------|
||o-----------------|-----------------|
||------------------|-----------------|
||------------------|-----------------|
||o-----------------|-6p3h6p3-5p2h5p2-|
||--5-5-7-7-5-5-4-4-|-----------------|
|
|   Gtr II
|   PM------------|
|   E E E E E E E E   E E E E E E E E
||------------------|-----------------|
||o-----------------|-----------------|
||------------------|-----------------|
||------------------|-----------------|
||o-----------------|-9p6h9p6-8p5h8p5-|
||--5-5-7-7-5-5-4-4-|-----------------|


  PM------------------------------------------------|
  E E E E E E E E   E E E E E E E E   E E E E E E E E
|-----------------|-----------------|-------------------|
|-----------------|-----------------|-------------------|
|-----------------|-----------------|-------------------|
|-----------------|-----------------|-------------------|
|-----------------|-7-7-------------|-------------------|
|-5-5-7-7-5-5-4-4-|-----5-5-4-4-5-5-|-0-0-0-0-0-0-0-0---|
|
| PM------------------------------|
| E E E E E E E E   E E E E E E E E   W
|-----------------|-----------------|-------------------|
|-----------------|-----------------|-------------------|
|-----------------|-----------------|-------------------|
|-----------------|-----------------|-------------------|
|-----------------|-7-7-------------|-------------------|
|-5-5-7-7-5-5-4-4-|-----5-5-4-4-5-5-|-------------------|


  Gtr I
  E E E E E E E E   E E Q  E E Q
|-----------------|---------------|
|-----------------|---------------|
|-----------------|---------------|
|-----------------|-2-2-2--1-1-1--|
|-----------------|-4-4----3-3----|
|-3p0h3p0-2p0h6p2-|---------------|
|
| Gtr II
| E E E E E E E E   E E Q  E E Q
|-----------------|---------------|
|-----------------|---------------|
|-----------------|---------------|
|-----------------|-5-5-5--4-4-4--|
|-----------------|-7-7----6-6----|
|-3p0h3p0-2p0h2p0-|---------------|


  E E E E E E E E   E E Q  E E Q    E E Q  E E Q
|-----------------|---------------|---------------|
|-----------------|---------------|---------------|
|-----------------|---------------|---------------|
|-----------------|-2-2-2--1-1-1--|-5-5-5--4-4-4--|
|-----------------|-4-4----3-3----|-7-7----6-6----|
|-3p0h3p0-2p0h6p2-|---------------|---------------|
|
| E E E E E E E E   E E Q  E E Q    E E Q  E E Q
|-----------------|---------------|---------------|
|-----------------|---------------|---------------|
|-----------------|---------------|-3-3-3--2-2-2--|
|-----------------|-5-5-5--4-4-4--|-5-5----4-4----|
|-----------------|-7-7----6-6----|---------------|
|-3p0h3p0-2p0h2p0-|---------------|---------------|


  1.
                                     3/4
  Gtr I
  PM------------------------------|
  E E E E E E E E   E E E E E E E E   E E E E E E   E E E E E E
|-----------------|-----------------|-------------|--------------||
|-----------------|-----------------|-------------|-------------o||
|-----------------|-----------------|-------------|--------------||
|-----------------|-----------------|-------------|--------------||
|-----------------|-7-7-------------|-4h5h6p4-4h5h|=6p4-5h6h7p4-o||
|-5-5-7-7-5-5-4-4-|-----5-5-4-4-5-5-|-------------|--------------||
|
| Gtr II
| PM------------------------------|
| E E E E E E E E   E E E E E E E E   E E E E E E   E E E E E E
|-----------------|-----------------|-------------|--------------||
|-----------------|-----------------|-------------|-------------o||
|-----------------|-----------------|-------------|--------------||
|-----------------|-----------------|-4h5h6p4-4h5h|=6p4-5h6h7p4--||
|-----------------|-7-7-------------|-------------|-------------o||
|-5-5-7-7-5-5-4-4-|-----5-5-4-4-5-5-|-------------|--------------||


 Riff 8 (1:52)
  2.
 4/4
  Gtr I
  E E Q  E E Q    E E Q  E E Q    H    H
|---------------|---------------|-----------|
|---------------|---------------|-----------|
|---------------|---------------|-----------|
|-2-2-2--1-1-1--|-5-5-5--4-4-4--|-----------|
|-4-4----3-3----|-7-7----6-6----|-4----3----|
|---------------|---------------|-2----1----|
|
| Gtr II
| E E Q  E E Q    E E Q  E E Q    H    H
|---------------|---------------|-----------|
|---------------|---------------|-----------|
|---------------|-3-3-3--2-2-2--|-----------|
|-5-5-5--4-4-4--|-5-5----4-4----|-----------|
|-7-7----6-6----|---------------|-4----3----|
|---------------|---------------|-2----1----|


  Gtrs I, II
  W          +W           +W           +W           +W           +W
|----------|------------|------------|------------|------------|--------|
|----------|------------|------------|------------|------------|--------|
|----------|------------|------------|------------|------------|--------|
|----------|------------|------------|------------|------------|--------|
|-2--------|-(2)--------|-(2)--------|-(2)--------|-(2)--------|-(2)----|
|-0--------|-(0)--------|-(0)--------|-(0)--------|-(0)--------|-(0)----|


  Gtrs I, II
  +W           +W           +W           +W           +W           +W
|------------|------------|------------|------------|------------|--------|
|------------|------------|------------|------------|------------|--------|
|------------|------------|------------|------------|------------|--------|
|------------|------------|------------|------------|------------|--------|
|-(2)--------|-(2)--------|-(2)--------|-(2)--------|-(2)--------|-(2)----|
|-(0)--------|-(0)--------|-(0)--------|-(0)--------|-(0)--------|-(0)----|


 Solo (2:05)
  Gtrs I, II
  PM---------------------------------------------------------------|
  E E E E E  E  Q     E E E E E E Q    E E E E E E Q    E E E E Q  Q
|-------------------|----------------|----------------|----------------|
|-------------------|----------------|----------------|----------------|
|-------------------|----------------|----------------|----------------|
|-------------------|----------------|----------------|----------------|
|-4-4---------------|-7-7------------|----------------|-5-5-----6------|
|-----0-0-5--5--0---|-----0-0-5-5-0--|-7-7-0-0-3-3-0--|-----0-0----2---|


  Gtrs I, II
  PM-------------------------------
  E E E E E E Q    E E E E E E Q
|----------------|----------------|
|----------------|----------------|
|----------------|----------------|
|----------------|----------------|
|-4-4------------|-7-7------------|
|-----0-0-5-5-0--|-----0-0-5-5-0--|


 -------------------------------------|  ~  PM
  E E E E E E Q    E E E E Q  Q    Q  Q  Q  Q
|----------------|---------------|-------------|
|----------------|---------------|-------------|
|----------------|---------------|-------------|
|----------------|---------------|-------------|
|----------------|-5-5-----6-----|-3--3--1--2--|
|-7-7-0-0-3-3-0--|-----0-0----2--|-1--1-----0--|


 Riff 6 - Modfied (2:12)
  Gtr I
                 PM--------|           PM
  Q  Q   Q       E E   E E Q   Q       Q
|--------------------|--------------------|
|--------------------|--------------------|
|--------------------|--------------------|
|-2--1---------------|--------------------|
|-------[5]b5.5------|--------[4]b4.5-----|
|----------------2-2-|-2-2-1-----------2--|
|
| Gtr II
|                PM--------|           PM
| Q  Q   Q       E E   E E Q   Q       Q
|--------------------|--------------------|
|--------------------|--------------------|
|--------------------|--------------------|
|-8--6---------------|--------[2]b2.5-----|
|-7--5--[5]b5.5------|--------------------|
|----------------2-2-|-2-2-1-----------1--|


           PM------|           PM----|
   Q       E E E E Q    E E Q  E E E E
|---------------------|----------------|
|---------------------|----------------|
|---------------------|----------------|
|-[3]b3.5-------------|-4S5S4----------|
|---------------------|-2S3S2----------|
|----------0-0-0-0-0--|--------5-5-4-4-|
|
|          PM------|           PM----|
|  Q       E E E E Q    Q   Q  E E E E
|---------------------|----------------|
|---------------------|----------------|
|---------------------|----------------|
|-[3]b3.5-------------|-8S==7----------|
|---------------------|-7S==6----------|
|----------2-1-0-0-0--|--------0-0-0-0-|


  Gtr I
  PM-|           PM--------|           PM
  Q  Q   Q       E E   E E Q   Q       Q
|--------------------|--------------------|
|--------------------|--------------------|
|--------------------|--------------------|
|--------------------|--------------------|
|-6--5--[5]b5.5------|--------[4]b4.5-----|
|-4--3-----------2-2-|-2-2-1-----------2--|
|
| Gtr II
| PM-|           PM--------|           PM
| Q  Q   Q       E E   E E Q   Q       Q
|--------------------|--------------------|
|--------------------|--------------------|
|--------------------|--------------------|
|--------------------|--------------------|
|-6--5--[5]b5.5------|--------[4]b4.5-----|
|-8--6-----------2-2-|-2-2-1-----------2--|


           PM------|           PM----|
   Q       E E E E Q    E E Q  E E E E
|---------------------|----------------|
|---------------------|----------------|
|---------------------|----------------|
|-[3]b3.5-------------|-4S5S4----------|
|---------------------|-2S3S2----------|
|----------0-0-0-0-0--|--------5-5-4-4-|
|
|          PM------|           PM--|
|  Q       E E E E Q    E E Q  Q   Q
|---------------------|----------------|
|---------------------|----------------|
|-[5]b5.5-------------|----------------|
|---------------------|-4S5S4----------|
|---------------------|-2S3S2--2---3---|
|----------0-0-0-0-0--|--------0---1---|


 Riff 3 - Modified (2:18)
 4/4                                                   2/4
  Gtr I
        PM--------------------|           PM            PM
  Q  Q  E E E E   E E E E E E Q    E E Q  Q   Q         Q   Q
|---------------|----------------|--------------------|-------------|
|---------------|----------------|--------------------|-------------|
|---------------|----------------|--------------------|-------------|
|---------------|-3-6-0-3--------|---5S4--1--[5]b5.5--|----[6]b6.5--|
|-4--4--0-4-5-8-|---------4-5-4--|-0h3S2--3-----------|-4-----------|
|-2--2----------|---------2-3-2--|--------------------|-------------|
|
| Gtr II
|       PM----|       PM|                               PM
| Q  Q  E E E E   E E E E E E Q    E E Q  Q   Q         Q   Q
|---------------|----------------|--------------------|-------------|
|---------------|----------------|--------------------|-------------|
|---------------|----------------|-----------[3]b3.5--|----[4]b4.5--|
|-----------3-6-|-6S9------------|---5S4--------------|-2-----------|
|-4--4--2-5-----|-----6-8-4S5S4--|-0h3S2--3-----------|-4-----------|
|-2--2----------|---------2S3S2--|--------------------|-------------|


 4/4
  Gtr I
  PM----|            PM|         PM|    PM|
  E E E E Q  Q    Q  E E Q  Q    E E Q  E E Q    E E E E  E  E  E  E
|---------------|--------------|---------------|----------------------|
|---------------|--------------|---------------|----------------------|
|---------------|--------------|---------------|----------------------|
|---------9--8--|-7------6--7--|-----6------5--|----------8--8--7--7--|
|---------7--6--|-5------4--5--|-----4------3--|-4-4-5-5--------------|
|-0-0-0-0-------|----0-0-------|-0-0----0-0----|----------------------|
|
| Gtr II
| PM----|            PM|         PM|    PM|      PM------------|
| E E E E Q  Q    Q  E E Q  Q    E E Q  E E Q    E E E E  E  E  E  E
|---------------|--------------|---------------|----------------------|
|---------------|--------------|---------------|----------------------|
|---------------|--------------|---------------|---------11-11-10-10--|
|---------9--8--|-7------6--7--|-----6------5--|-7-7-8-8--------------|
|---------7--6--|-5------4--5--|-----4------3--|----------------------|
|-6-6-6-6-------|----0-0-------|-0-0----0-0----|----------------------|


  Gtr I
  PM-----------------------|
  E E E E E E E E   E E Q  Q  Q    E E E E E  E E E
|-----------------|--------------|------------------|
|-----------------|--------------|------------------|
|-----------------|--------------|------------------|
|-----------------|--------3--2--|------------------|
|-1-1-2-2-5-5-4-4-|-2-2-1--1-----|-----5h8-8h11-5h8-|
|-----------------|--------------|-5h8--------------|
|
| Gtr II
| PM-----------------------|
| E E E E E E E E   E E Q  Q  Q    E E E E E  E E E
|-----------------|--------------|------------------|
|-----------------|--------------|------------------|
|-----------------|--------------|------------------|
|-----------------|--------3--2--|-----3h6-6h=9-3h6-|
|-1-1-2-2-5-5-4-4-|-2-2-1--1-----|-3h6--------------|
|-----------------|--------------|------------------|


  PM--|                   PM
  E E Q  E E Q    Q   Q   Q  Q
|---------------|-------------------|
|---------------|-------------------|
|---------------|-------------------|
|----------5S4--|-------------------|
|-4-5-4--0h3S2--|-3--[2]--4--3b3.5--|
|-2-3-2---------|---------2---------|
|
| PM--|           PM      PM
| E E Q  E E Q    Q   Q   Q  Q
|---------------|-------------------|
|---------------|-------------------|
|---------------|-------------------|
|----------5S4--|----[2]------------|
|-4S5S4--0h3S2--|-3-------6--3b3.5--|
|-2S3S2---------|---------4---------|


  Gtr I
  PM--|          PM|    PM----|         PM      PM------------|
  E E Q  Q  Q    E E Q  E E E E   Q  Q  Q  Q    E E E E E E E E
|--------------|----------------|-------------|-----------------|
|--------------|----------------|-------------|-----------------|
|--------------|----------------|-------------|---------8-8-7-7-|
|--------9--8--|-----7----------|-6--7-----7--|-4-4-5-5---------|
|--------7--6--|-----5----------|-4--5--7--5--|-----------------|
|-0-0-0--------|-0-0----0-0-0-0-|-------------|-----------------|
|
| Gtr II
| PM--|          PM|    PM----|         PM      PM------------|
| E E Q  Q  Q    E E Q  E E E E   Q  Q  Q  Q    E E E E E E E E
|--------------|----------------|-------------|-----------------|
|--------------|----------------|-------------|-----------------|
|--------------|----------------|-------------|---------3-3-2-2-|
|--------9--8--|-----7----------|-6--7-----5--|-4-4-------------|
|--------7--6--|-----5----------|-4--5--7-----|-2-2-4-5---------|
|-0-0-0--------|-0-0----0-0-0-0-|-------------|-----------------|


  Gtrs I, II
  PM------------------------|             PM------------------------|
  E E E E E E E E   E E E E Q   Q         E E E E E E E E   E E E E Q  Q
|-----------------|---------------------|-----------------|---------------|
|-----------------|---------------------|-----------------|---------------|
|-----------------|---------------------|-----------------|---------------|
|-----------------|---------3--[3]b3.5--|-----------------|---------3-----|
|-1-1-2-2-5-5-4-4-|-2-2-1-1-1-----------|-1-1-2-2-5-5-4-4-|-2-2-1-1-1-----|
|-----------------|---------------------|-----------------|---------------|


   Riff 7 (2:34)
    Gtr I
    PM--|                PM--|       ~           PM        PM--|
    E E Q  Q  Q    Q  Q  E E Q    Q  H     E E   Q   Q     E E Q
||---------------|--------------|--------------|-------------------|
||o--------------|--------------|--------------|-------------------|
||---------------|--------------|--------------|-------------------|
||---------3S=4--|-3S=4---------|-2------------|-------------------|
||o--------2S=3--|-2S=3---------|----1-----2p1-|-5---5-------------|
||--1-0-0--------|-------0-0-0--|--------------|-3---------0-0-0---|
|
|   Gtr II
|   PM--|                PM--|                   PM        PM--|
|   E E Q  Q  Q    Q  Q  E E Q    Q  Q  Q  Q     Q   Q     E E Q
||---------------|--------------|--------------|-------------------|
||o--------------|--------------|--------------|-------------------|
||---------------|--------------|-3------------|-------------------|
||---------3S=4--|-3S=4---------|----2--0--6---|----[4]b5----------|
||o--------2S=3--|-2S=3---------|--------------|-5-----------------|
||--1-0-0--------|-------0-0-0--|--------------|-3---------0-0-0---|


  Gtr I
           PM------|             PM-|
  Q  Q  Q  Q    Q  Q  Q  Q    Q  Q  Q   Q
|-------------|-------------|--------------------||
|-------------|-------------|-------------------o||
|-------------|-------------|--------------------||
|-3S=4--3-----|-------7--5--|-4------------------||
|-2S=3--2-----|-5-----5--3--|-2--0--4---2b2.5---o||
|----------0--|-6--6--------|-------2------------||
|
| Gtr II
|          PM------|          ~  PM-|
| Q  Q  Q  Q    Q  Q  Q  Q    Q  Q  Q   Q
|-------------|-------------|--------------------||
|-------------|-------------|-------------------o||
|-------------|-------------|--------------------||
|-3S=4--3-----|-------------|----------[7]b7.5---||
|-2S=3--2-----|-5--4--4--2--|-------4-----------o||
|----------0--|-6--5--------|-6--0--2------------||


 Riff 7 - Modified (2:45)
  Gtr I
  PM--|                PM--|          ~        PM        PM--|
  E E Q  Q  Q    Q  Q  E E Q    Q  Q  Q  E E   Q   Q     E E Q
|--------------|--------------|--------------|------------------|
|--------------|--------------|--------------|------------------|
|--------------|--------------|--------------|------------------|
|--------3S=4--|-3S=4---------|-3--------1p0-|------------------|
|--------2S=3--|-2S=3---------|----2--1------|-5---5------------|
|-0-0-0--------|-------0-0-0--|--------------|-3---------0-0-0--|
|
| Gtr II
| PM--|                PM--|                   PM        PM--|
| E E Q  Q  Q    Q  Q  Q   Q    Q  Q  Q  Q     Q   Q     E E Q
|--------------|--------------|--------------|------------------|
|--------------|--------------|--------------|------------------|
|--------------|--------------|--------------|------------------|
|--------3S=4--|-3S=4---------|-6--------4---|----[4]b5---------|
|--------2S=3--|-2S=3--0---0--|----5--3------|-5----------------|
|-0-0-0--------|--------------|--------------|-3---------0-0-0--|


  Gtr I
           PM------|          PM------|
  Q  Q  Q  Q    Q  Q  Q  Q    E E E E Q   Q
|-------------|-------------|---------------------|
|-------------|-------------|---------------------|
|-------------|-------------|---------------------|
|-3S=4--3-----|-------6-----|---------------------|
|-2S=3--2-----|-5--4--4--4--|-2-4-0---4---2b2.5---|
|----------0--|-6--5--------|-------3-2-----------|
|
| Gtr II
|          PM------|          PM------|
| Q  Q  Q  Q    Q  Q  Q  Q    E E Q   Q   Q
|-------------|-------------|---------------------|
|-------------|-------------|---------------------|
|-------------|-------------|---------------------|
|-3S=4--3-----|-------------|------------[7]b7.5--|
|-2S=3--2-----|-5--4--4--3--|-1-3-----6-----------|
|----------0--|-6--5--------|-----2---4-----------|


  Gtr I
  PM--|                PM--|          ~        PM        PM--|
  E E Q  Q  Q    Q  Q  E E Q    Q  Q  Q  E E   Q   Q     E E Q
|--------------|--------------|--------------|------------------|
|--------------|--------------|--------------|------------------|
|--------------|--------------|--------------|------------------|
|--------3S=4--|-3S=4---------|-3--------1p0-|------------------|
|--------2S=3--|-2S=3---------|----2--1------|-5---5------------|
|-0-0-0--------|-------0-0-0--|--------------|-3---------0-0-0--|
|
| Gtr II
| PM--|                PM--|                   PM        PM--|
| E E Q  Q  Q    Q  Q  Q   Q    Q  Q  Q  Q     Q   Q     E E Q
|--------------|--------------|--------------|------------------|
|--------------|--------------|--------------|------------------|
|--------------|--------------|-5--------3---|------------------|
|--------3S=4--|-3S=4---------|----4--2------|----[4]b5---------|
|--------2S=3--|-2S=3--0---0--|--------------|-5----------------|
|-0-0-0--------|--------------|--------------|-3---------0-0-0--|


  Gtr I
           PM------|          PM------|
  Q  Q  Q  Q    Q  Q  Q  Q    E E E E Q   Q
|-------------|-------------|---------------------|
|-------------|-------------|---------------------|
|-------------|-------------|---------------------|
|-3S=4--3-----|-------6-----|-4-3-----------------|
|-2S=3--2-----|-5--4--4--4--|-----4-3-4--[4]b4.5--|
|----------0--|-6--5--------|---------2-----------|
|
| Gtr II
|          PM------|          PM------|
| Q  Q  Q  Q    Q  Q  Q  Q    E E E E Q   Q
|-------------|-------------|---------------------|
|-------------|-------------|---------------------|
|-------------|-------------|---------------------|
|-3S=4--3-----|-------------|---4-3------[7]b7.5--|
|-2S=3--2-----|-5--4--4--3--|-4-----1-6-----------|
|----------0--|-6--5--------|---------4-----------|


  Gtrs I, II
  W          +W           +W           +W           +W
|----------|------------|------------|------------|--------|
|----------|------------|------------|------------|--------|
|----------|------------|------------|------------|--------|
|----------|------------|------------|------------|--------|
|-2--------|-(2)--------|-(2)--------|-(2)--------|-(2)----|
|-0--------|-(0)--------|-(0)--------|-(0)--------|-(0)----|


 Riff 1 - Modified (3:00)
  Gtrs I, II
  PM------------------------|             PM--------------------------| ~
  E E E E E E E E   E E E E Q   Q         E E E E E E E E   E E E E E E Q
|-----------------|---------------------|-----------------|----------------|
|-----------------|---------------------|-----------------|----------------|
|-----------------|---------------------|-----------------|----------------|
|-----------------|---------3--[3]b3.5--|-----------------|----------------|
|-1-1-2-2-5-5-4-4-|-2-2-1-1-1-----------|-1-1-2-2-5-5-4-4-|-2-2-1-1--------|
|-----------------|---------------------|-----------------|---------1-0-1--|


  Gtrs I, II
  PM------------------------|             PM------------------------|
  E E E E E E E E   E E E E Q   Q         E E E E E E E E   E E E E Q  Q
|-----------------|---------------------|-----------------|---------------|
|-----------------|---------------------|-----------------|---------------|
|-----------------|---------------------|-----------------|---------------|
|-----------------|---------3--[3]b3.5--|-----------------|---------3-----|
|-1-1-2-2-5-5-4-4-|-2-2-1-1-1-----------|-1-1-2-2-5-5-4-4-|-2-2-1-1-1-----|
|-----------------|---------------------|-----------------|---------------|


  Gtrs I, II
  W         W          W          W
|---------|----------|----------|------*|
|---------|----------|----------|------*|
|---------|----------|----------|------*|
|---------|----------|----------|------*|
|---------|----------|----------|------*|
|---------|----------|----------|------*|

End.
Добавлено: 04.07.2013
Другие материалы по этой песне:

Страница создана 04.05.2012
http://primanota.ru/visceral-bleeding/when-pain-came-to-town-chords.htm
Привет, Гость.
Предлагаем пройти революционный курс по гитаре.
Подарок от PrimaNota.Ru, забирай!