PrimaNota.ru - самый крупный в мире бесплатный архив песенных текстов, аккордов, табулатур и нот


Visage - Shes Electric Coming Around - бас-таба, видео

Регистрация Запомнить меня
Войти через:  Facebook Google Twitter Vk Yandex Mail.ru

Visage - Shes Electric Coming Around - бас-таба, видео

Печатать
Просмотров: 120
Новый альбом группы 'Черный Кузнец' по культовому сериалу 'Сверхъестественное'!
Tabbed by: bassm99
E-mail: alanmatthews1966@yahoo.co.uk

Tuning: E, A, D, G

"She's Electric (Coming Around)" from the album "Hearts And Knives" (2013)
Written by Steve Strange/Mick MacNeil/John Bryan/Josh Legg/Kyle Petersen

Bass Starts 0:09

Intro: (Play Once)
 
G|----99---99---77---77---55---55-------------------------------------------|
D|----------------------------------77---77---------------------------------|
A|--7----7----5----5----3----3----------------------------------------------|
E|--------------------------------5----5------------------------------------|

Verse: (Play 4 Times)

G|----99---99---77---77---55---55-------------------------------------------|
D|----------------------------------77---77---------------------------------|
A|--7----7----5----5----3----3----------------------------------------------|
E|--------------------------------5----5------------------------------------|

Chorus: (Play 4 Times) 

G|----999---999---777---777---555---555-------------------------------------|
D|----------------------------------------777---777-------------------------|
A|--7-----7-----5-----5-----3-----3-----------------------------------------|
E|--------------------------------------5-----5-----------------------------|

Bass Stops 1:28 - 1:36

Repeat Verse:

Repeat Chorus:

Bridge: (Play Twice)

G|----999---999---777---777---555---555-------------------------------------|
D|----------------------------------------777---777-------------------------|
A|--7-----7-----5-----5-----3-----3-----------------------------------------|
E|--------------------------------------5-----5-----------------------------|

Repeat Chorus:
Добавлено: 03.11.2014
Другие материалы по этой песне:
  • Аккорды и текст

Страница создана 03.11.2014
http://primanota.ru/visage/shes-electric-coming-around-chords.htm
Привет, Гость.
Предлагаем пройти революционный курс по гитаре.
Подарок от PrimaNota.Ru, забирай!