PrimaNota.ru - самый крупный в мире бесплатный архив песенных текстов, аккордов, табулатур и нот


Visage - Horseman - бас-таба, видео

Регистрация Запомнить меня
Войти через:  Facebook Google Twitter Vk Yandex Mail.ru

Visage - Horseman - бас-таба, видео

Печатать
Просмотров: 172
Новый альбом группы 'Черный Кузнец' по культовому сериалу 'Сверхъестественное'!
Visage - The Horseman - The Anvil (1982)
Bassist- Adamson
Tabbed by Spidey_Dying_Youth 08/March/07

Standard Tuning (GDAE)
  
  Verse x3
G|-----------------------------------------------------------------|
D|----7-------------------------------7----------------5-555-------|
A|-----7-------------------------------7-------------5-------5/7-5-|
E|-55----5-5--5-3-11--1-3-333-1-3--55----5-5--5-3-11---------------|

  Verse End x1
G|-------------------------------------------------------------------|
D|----7------------------------------7--------------3/7-5---5--5-----|
A|-----7------------------------------7-------------------7--7-------|
E|-55----5-5--5-3-11--1-3-333-1-3-55----5-5--5-3-11--------------5-5~|

  Bridge x4
G|-------------------------|
D|-------------------------|
A|-------------------------|
E|-55--00-3-5--00-3-5--5-5~|

  Brigde 2
G|--------------------|---|------------------|
D|--------------------|x11|------------------|x1
A|--------5-----------|---|--------5---------|
E|-55-7-8--8--8-7-5~--|---|-55-7-8--8--5-7-0~|

Verse x3
Verse End x1

Bridge x4
Bridge 2

  "The race is on again.." (2:38)
G|------------------------|---|--(3:12)--|
D|------------------------|x15|----------|x1
A|-77-0-5-7--0-5-7-55-7-7-|---|---7--7/--|
E|------------------------|---|----------|

  (3:14)
G|---------------|
D|----------3--5-|
A|---------------|
E|-5~~-11--1--3--|

Verse x2
Verse End x3

End Verse (4:11) Play until fade
G|-----------------------------------|
D|----7------------------------------|
A|-----7-----------------------------|
E|-55----5-5--5-3-11--1-3-333-1-3----|

/ = slide
~ = let ring

Questions or comments at ftwiiner@gmail.com
Enjoy =)
Добавлено: 21.04.2012
Другие материалы по этой песне:
  • Аккорды и текст

Страница создана 21.04.2012
http://primanota.ru/visage/horseman-chords.htm
Привет, Гость.
Предлагаем пройти революционный курс по гитаре.
Подарок от PrimaNota.Ru, забирай!