PrimaNota.ru - самый крупный в мире бесплатный архив песенных текстов, аккордов, табулатур и нот


Vis Idoli - Rusija - аккорды и текст, видео

Регистрация Запомнить меня
Войти через:  Facebook Google Twitter Vk Yandex Mail.ru

Vis Idoli - Rusija - аккорды и текст, видео

Печатать
Просмотров: 116
Rusija
Vis Idoli
e---3---1-0-------|---------------0---|--
H-----------3-----|--1--3---1-h-3-----|--
G--------------0--|-------------------|--
D-----------------|-------------------|--
A-----------------|-------------------|--
E-----------------|-------------------|--

e---3---1-0-------|-------------------|--
H-----------3-----|--1---0------------|--
G--------------0--|-------------------|--
D-----------------|----------2--------|--
A-----------------|-------------------|--
E-----------------|-------------------|--


 Am       Dm   F       G   C
Bakiceva ulica vec je zaspala
 Am          Dm      F        G    C
Senke se pritajile, svetlost zgusnula
 Am        Dm      F     G   C
Nasa tiha soba se tek probudila
 Am        Dm      F    G  C
Nasa tiha soba je zatreperila

Am       Dm     F       G   C
Ja sam jos studirao, ona je radila
 Am          Dm      F      G    C
Nocu sam joj citao A. Fadejeva
Am        Dm      F     G   C
Nekad bi se cudila mojim pesmama
Am        Dm      F     G   C
Nije mi dopustala da se zamaram

Am        Dm      F        G   C
Nama Nova godina nista nije donela
Am        Dm      F     G   C
Kao da se zbunila il se rugala
Am        Dm       F       G   C
Nama Nova godina nista nije donela
Am        Dm      F       G   C
Po nebu smo trazili svetlost vostoka

Am        Dm      F     G   C
Imala je snaznije ruke nego ja
Am        Dm      F     G   C
Imala je snaznije ruke nego ja 
Am        Dm      F     G   C
Nije mi dopustila da je savladam
Am        Dm      F     G   C
NIje mi dozvolila da je savladam

e---3---1-0-------|---------------0---|--
H-----------3-----|--1--3---1-h-3-----|--
G--------------0--|-------------------|--
D-----------------|-------------------|--
A-----------------|-------------------|--
E-----------------|-------------------|--

e---3---1-0-------|-------------------|--
H-----------3-----|--1---0------------|--
G--------------0--|-------------------|--
D-----------------|----------2--------|--
A-----------------|-------------------|--
E-----------------|-------------------|--
Добавлено: 04.12.2015
Другие материалы по этой песне:
  • Аккорды и текст

Страница создана 04.12.2015
http://primanota.ru/vis-idoli/rusija-chords.htm
Привет, Гость.
Предлагаем пройти революционный курс по гитаре.
Подарок от PrimaNota.Ru, забирай!