PrimaNota.ru - самый крупный в мире бесплатный архив песенных текстов, аккордов, табулатур и нот


Virus - Twisted Fate - таба, видео

Регистрация Запомнить меня
Войти через:  Facebook Google Twitter Vk Yandex Mail.ru

Virus - Twisted Fate - таба, видео

Печатать
Просмотров: 150
Artist: Virus
Album: (Demo Track)
Song: Twisted Fate
Email: rexxdoggy@yahoo.com

Last Update: 01/04/05

This song is mainly been tabbed out because I was
asked. So I tabbed it out just for the heck of it.
really easy songs with catchy riffs. I'm not
really sure about how accurate it is. I just matched
the sound to as much as 95% sureness.

Guitar I (CGCFAD)
Guitar II (CGCFAD)

Key:
B  Bend
H  Hammer On
P  Pull Off
PM Palm Mute
*  Harmonic
() Ghost Note
  Slide Down

NOTE TO ONE'S SELF: NOT IN ORDER. INCLUDES THE TIMES THAT THE
                    RIFFS ARE PLAYED. I AM NOT RESPONSIBLE FOR
                    THE SELF CONFUSION OF THE USER. YES, THESE
                    ARE IN RIFFS, AS STATED IN THE BEGGINNING
                    OF THIS NOTICE.


Intro Gtr 1 (0:02)
|----------------------------------------------------------------------------|
|-----------5b6-----------5b6-----------5b6-----------5b6--------------------|
|-----------4b5-----------4b5-----------4b5-----------4b5--------------------|
|--0-0-0---------0-0-0---------0-0-0---------0-0-0---------------------------|
|--0-0-0---------0-0-0---------0-0-0---------0-0-0---------------------------|
|--0-0-0---------0-0-0---------0-0-0---------0-0-0---------------------------|
PM -----         -----         -----         --------------------------------|

Intro Gtr 2 (0:09)
|---------------------------------------------------------------------------|
|---------------------------------------------------------------------------|
|---------------------------------------------------------------------------|
|--0-------h3---p0--------h3---0p-------h3---0p------h3---------------------|
|--0-------h3---p0--------h3---0p-------h3---0p------h3---------------------|
|--0-------h3---p0--------h3---0p-------h3---0p------h3---------------------|

Pre Verse Gtr 1 (0:19) Repeat how ever many times, not sure
|----------------------------------------------------------------------------|
|----------------------------------------------------------------------------|
|----------------------------------------------------------------------------|
|--0--0--0-0--0--0-0--0--0-0--0--0-0-----------------------------------------|
|--0--0--0-0--0--0-0--0--0-0--0--0-0-----------------------------------------|
|--0--0--0-0--0--0-0--0--0-0--0--0-0-----------------------------------------|
PM --------------------------------------------------------------------------|

Pre Verse Gtr 2 (0:19) Repeat how ever many time, not sure
|----------------------------------------------------------------------------|
|----------------------------------------------------------------------------|
|----------------------------------------------------------------------------|
|--5--5--5-5--5--5-5--5--5-5--5--5-5-----------------------------------------|
|--5--5--5-5--5--5-5--5--5-5--5--5-5-----------------------------------------|
|--5--5--5-5--5--5-5--5--5-5--5--5-5-----------------------------------------|
PM --------------------------------------------------------------------------|

Gtr 1 (0:27)
|---------------------------------------------------------------------------|
|---------------------------------------------------------------------------|
|---------------------------------------------------------------------------|
|--0------(0)------(0)------------------------------------------------------|
|--0------(0)------(0)------------------------------------------------------|
|--0------(0)------(0)------------------------------------------------------|

Gtr 1 (0:31) Repeat how ever many times, not sure
|----------------------------------------------------------------------------|
|----------------------------------------------------------------------------|
|----------------------------------------------------------------------------|
|--0--0--0-0--0--0-0--0--0-0--0--0-0-----------------------------------------|
|--0--0--0-0--0--0-0--0--0-0--0--0-0-----------------------------------------|
|--0--0--0-0--0--0-0--0--0-0--0--0-0-----------------------------------------|
PM --------------------------------------------------------------------------|

Gtr 2 (0:31) Repeat how ever many time, not sure
|----------------------------------------------------------------------------|
|----------------------------------------------------------------------------|
|----------------------------------------------------------------------------|
|--5--5--5-5--5--5-5--5--5-5--5--5-5-----------------------------------------|
|--5--5--5-5--5--5-5--5--5-5--5--5-5-----------------------------------------|
|--5--5--5-5--5--5-5--5--5-5--5--5-5-----------------------------------------|
PM --------------------------------------------------------------------------|

Gtrs 1 and 2 (0:35)
|----------------------------------------------------------------------------|
|----------------------------------------------------------------------------|
|---------3-------------5-3----------3-------------5-3-----------------------|
|--0-0-0-------0-0-0--0-------0-0-0-------0-0-0--0---------------------------|
|--0-0-0-------0-0-0--0-------0-0-0-------0-0-0--0---------------------------|
|--0-0-0-------0-0-0--0-------0-0-0-------0-0-0--0---------------------------|
PM -----       --------       -----       -----------------------------------|

Gtrs 1 and 2 (0:43)
|----------------------------------------------------------------------------|
|----------------------------------------------------------------------------|
|----------------------------------------------------------------------------|
|--0-0-0--3----0-0-0--0-5-3---0-0-0--3----0-0-0--0-5-3-----------------------|
|--0-0-0--3----0-0-0--0-5-3---0-0-0--3----0-0-0--0-5-3-----------------------|
|--0-0-0--3----0-0-0--0-5-3---0-0-0--3----0-0-0--0-5-3-----------------------|
PM -----       --------       -----       -----------------------------------|

Verses 1,2 and 3 Gtrs 1 and 2 (0:51, 1:40)
|----------------------------------------------------------------------------|
|----------------------------------------------------------------------------|
|----------------------------------------------------------------------------|
|--0-0-0-0---0-0-0-0---0-0-0-0---0-0-0-0---5---3-----------------------------|
|--0-0-0-0---0-0-0-0---0-0-0-0---0-0-0-0---5---3-----------------------------|
|--0-0-0-0---0-0-0-0---0-0-0-0---0-0-0-0---5---3-----------------------------|
PM --------------------------------------------------------------------------|

(cont.)
|----------------------------------------------------------------------------|
|---------------------------------------------*5-----------------------------|
|---------------------------------------------*5-----------------------------|
|--0-0-0-0---0-0-0-0---0-0-0-0---0-0-0-0------*5-----------------------------|
|--0-0-0-0---0-0-0-0---0-0-0-0---0-0-0-0-------------------------------------|
|--0-0-0-0---0-0-0-0---0-0-0-0---0-0-0-0-------------------------------------|
PM --------------------------------------------------------------------------|

Chorus Gtrs 1 and 2 (1:22, 2:10)
|---------------------------------------------------------------------------|
|---------------------------------------------------------------------------|
|---------------------------------------------------------------------------|
|--5---5\\1--1--1-----3--3--3--3--3-----------------------------------------|
|--5---5\\1--1--1-----3--3--3--3--3-----------------------------------------|
|--5---5\\1--1--1-----3--3--3--3--3-----------------------------------------|

Pre Verse (1:38) ??? Not 100% sure but its as close as I can get
|---------------------------------------------------------------------------|
|---------------------------------------------------------------------------|
|---------------------------------------------------------------------------|
|--5-\\--1---(1)------------------------------------------------------------|
|--5-\\--1---(1)------------------------------------------------------------|
|--5-\\--1---(1)------------------------------------------------------------|

Break Gtrs 1 and 2 (2:26) Repeat how ever many times, didn't count
|----------------------------------------------------------------------------|
|----------------------------------------------------------------------------|
|----------------------------------------------------------------------------|
|----------------------------------------------------------------------------|
|--0-0-0-0-0-0-0-0-0-0-0-0-0-0-0-0-0-0-0-0-0-0-------------------------------|
|--0-0-0-0-0-0-0-0-0-0-0-0-0-0-0-0-0-0-0-0-0-0-------------------------------|
PM --------------------------------------------------------------------------|

(2:41) x2
|----------------------------------------------------------------------------|
|-------*12b13--------14-12-------*12b13--------14-12------------------------|
|-------*11b12--------13-11-------*11b12--------13-11------------------------|
|--0-0---------0-0--0--------0-0---------0-0--0------------------------------|
|--0-0---------0-0--0--------0-0---------0-0--0------------------------------|
|--0-0---------0-0--0--------0-0---------0-0--0------------------------------|
PM ---         ------        ---         ------------------------------------|

(2:50) x2
|----------------------------------------------------------------------------|
|--------11-9----------11-9-------11-9----------11-9-------------------------|
|----------------------------------------------------------------------------|
|--0-0-0------0-0-0--0------0-0-0------0-0-0--0------------------------------|
|--0-0-0------0-0-0--0------0-0-0------0-0-0--0------------------------------|
|--0-0-0------0-0-0--0------0-0-0------0-0-0--0------------------------------|
PM -----      --------      -----      --------------------------------------|

Clean Interlude Gtr 1 (2:57) Not 100% sure but its as close as I can get
|---------------------------------------------------------------------------|
|---------------------------------------------------------------------------|
|---------------------------------------------------------------------------|
|--5--5-5--5-5-5--3--3-3--3-3-3--2--2-2--2-2-2--0---------------------------|
|--6--6-6--6-6-6--5--5-5--5-5-5--3--3-3--3-3-3--0---------------------------|
|--5--5-5--5-5-5--3--3-3--3-3-3--2--2-2--2-2-2--0---------------------------|

Pick slide (3:03)

Chorus (3:05) Small Bass Break at (3:15)
|---------------------------------------------------------------------------|
|---------------------------------------------------------------------------|
|---------------------------------------------------------------------------|
|--5---5\\1--1--1-----3--3--3--3--3-----------------------------------------|
|--5---5\\1--1--1-----3--3--3--3--3-----------------------------------------|
|--5---5\\1--1--1-----3--3--3--3--3-----------------------------------------|

Outro (3:22) The last time, gtrs 1 and 2 switch around.
|----------------------------------------------------------------------------|
|----------------------------------------------------------------------------|
|----------------------------------------------------------------------------|
|--0-0-0-0---0-0-0-0---0-0-0-0---0-0-0-0---5---3-----------------------------|
|--0-0-0-0---0-0-0-0---0-0-0-0---0-0-0-0---5---3-----------------------------|
|--0-0-0-0---0-0-0-0---0-0-0-0---0-0-0-0---5---3-----------------------------|
PM --------------------------------------------------------------------------|

(cont.)
|---------------------------------------------------------------------------|
|---------------------------------------------*5----------------------------|
|---------------------------------------------*5----------------------------|
|--0-0-0-0---0-0-0-0---0-0-0-0---0-0-0-0------*5----------------------------|
|--0-0-0-0---0-0-0-0---0-0-0-0---0-0-0-0------------------------------------|
|--0-0-0-0---0-0-0-0---0-0-0-0---0-0-0-0------------------------------------|
PM -------------------------------------------------------------------------|
Добавлено: 19.03.2012
Другие материалы по этой песне:
  • Аккорды и текст

Страница создана 19.03.2012
http://primanota.ru/virus/twisted-fate-chords.htm
Привет, Гость.
Предлагаем пройти революционный курс по гитаре.
Подарок от PrimaNota.Ru, забирай!