PrimaNota.ru - самый крупный в мире бесплатный архив песенных текстов, аккордов, табулатур и нот


Virus - Todays Rebellion Tomorrows Freedom - таба, видео

Регистрация Запомнить меня
Войти через:  Facebook Google Twitter Vk Yandex Mail.ru

Virus - Todays Rebellion Tomorrows Freedom - таба, видео

Печатать
Просмотров: 118
Уроки эстрадного вокала в Санкт-Петербурге
Intro and verse are the same...figure the palm mute out...
e ---------------------------------------------------------|
b ---------------------------------------------------------|
g ----7--5--4----------------------------------------------|
D -7--7--5--4--5-------------------------------------------|
A -7--5--3--2--5-------------------------------------------|
E -5-----------3-------------------------------------------|


Chorus:

e ---------------------------------------------------------|
b ---------------------------------------------------------|
g ----10--7--4--10--7-----10--7--4-------------------------|
D -7--10--7--4--10--7--7--10--7--4--5----------------------|
A -7--8---5--2--8---5--7--8---5--2--5----------------------|
E -5-------------------5------------3----------------------|

Bridge:
today's rebellion-tomorroooow's freeedoooom!!...

e ---------------------------------------------------------|
b ---------------------------------------------------------|
g ----10--7------------------------------------------------|
D -7--10--7------------------------------------------------|
A -7--8---5------------------------------------------------|
E -5-------------------------------------------------------|

and then

e ----------------|
b ----------------|
g -4--------------|
D -4--5-----------|
A -2--5-----------|
E ----3-----------|

i think it' the perfect way to play this song...
stay punk!
Добавлено: 12.03.2012
Другие материалы по этой песне:
  • Аккорды и текст

Страница создана 03.03.2012
http://primanota.ru/virus/todays-rebellion-tomorrows-freedom-chords.htm
Привет, Гость.
Предлагаем пройти революционный курс по гитаре.
Подарок от PrimaNota.Ru, забирай!