PrimaNota.ru - самый крупный в мире бесплатный архив песенных текстов, аккордов, табулатур и нот


Virus - Pronta Entrega - бас-таба, видео

Регистрация Запомнить меня
Войти через:  Facebook Google Twitter Vk Yandex Mail.ru

Virus - Pronta Entrega - бас-таба, видео

Печатать
Просмотров: 117
Уроки эстрадного вокала в Санкт-Петербурге
----------------------------------------------------------------------------
                             VIRUS - PRONTO ENTREGA
----------------------------------------------------------------------------
Tabbed by: Chevelle

INTRO
G|----323---63------323---63------------------------------------------------|
D|-------------------------------/7-----------------------------------------|
A|--------------------------------------------------------------------------|
E|--------------------------------------------------------------------------|

VERSO 1
G|--------------------------------------------------------------------------|
D|--------------------------------------------------------------------------|
A|111111-333333---------555555--------111111-333333-55555555----------------|
E|---------------111111-----------------------------------------------------|

G|--------------------------------------------------------------------------|
D|--------------------------------------------------------------------------|
A|111111-333333---------555555--------111111-333333-5555--867---------------|
E|--------------111111------------------------------------------------------|

VERSO 2
G|--------------------------------------------------------------------------|
D|------3-------5------7------7------8-------10-----------------------------|
A|1111----3333---5555---5555---6666-----------------------------------------|
E|--------------------------------------------------------------------------|

VERSO 3
G|--------------------------------------------------------------------------|
D|---3----3--------------------------------3----3---------------------------|
A|55--5--5-----3----3--111111--333333--55---5--5-----3----3--111111--333333-|
E|----------55--5--5-----------------------------55---5--5------------------|

VERSO 4
G|--------------------------------------------------------------------------|
D|--------------------4444-4------------------------------------------------|
A|1111X--------5555-5--------111111-3333X3----------------------------------|
E|------1111X---------------------------------------------------------------|

VERSO 1

VERSO 2

VERSO 3

VERSO 4

VERSO 5 - FIN
G|--------------------------------------------------------------------------|
D|--------------------3----3------------------------------------------------|
A|111111--333333--55---5--5-----3----3--------------------------------------|
E|--------------------------55---5--5---------------------------------------|


=============================================================================
| /  slide up
| \  slide down
| h  hammer-on
| p  pull-off
| ~  vibrato
| +  harmonic
| x  Mute note
=============================================================================
Добавлено: 10.06.2013
Другие материалы по этой песне:

Страница создана 04.06.2012
http://primanota.ru/virus/pronta-entrega-chords.htm
Привет, Гость.
Предлагаем пройти революционный курс по гитаре.
Подарок от PrimaNota.Ru, забирай!