PrimaNota.ru - самый крупный в мире бесплатный архив песенных текстов, аккордов, табулатур и нот


Virus - Nowhere To Hide - бас-таба, видео

Регистрация Запомнить меня
Войти через:  Facebook Google Twitter Vk Yandex Mail.ru

Virus - Nowhere To Hide - бас-таба, видео

Печатать
Просмотров: 151
The Virus
Nowhere to Hide
Nowhere to Hide


Intro/Verse:
-----------------------|
-----------------222---|
-------------44-4------|
---333-333-33----------|

^^^Weird Strumming/Picking Pattern^^^


Chorus:
-----------------------------|
-----------------------------|
---2212212212212-------------|
----------------1---(ring)---|

Bridge:
------------------------------------|
------------------0-00-00-22-00-----|
----------4-44-44---------------4---|
---3-33-33--------------------------|
Добавлено: 06.03.2012
Другие материалы по этой песне:
  • Аккорды и текст

Страница создана 06.03.2012
http://primanota.ru/virus/nowhere-to-hide-chords.htm
Привет, Гость.
Предлагаем пройти революционный курс по гитаре.
Подарок от PrimaNota.Ru, забирай!