PrimaNota.ru - самый крупный в мире бесплатный архив песенных текстов, аккордов, табулатур и нот


Virginia Coalition - Lonely Cowboy - текст песни, таба, видео

Регистрация Запомнить меня
Войти через:  Facebook Google Twitter Vk Yandex Mail.ru

Virginia Coalition - Lonely Cowboy - текст песни, таба, видео

Печатать
Просмотров: 123
Tabbed by Fedxpope

Intro riff/verse:

    G     D           C     D
E|------------2-3-2--------------------------------------------|
B|------------3-3-3------1----3--------------------------------|
G|-----0----2------------0----2----5—-3/4----------------------|
D|---0----0------------2----0------5—-4/5----------------------|
A|-------------------3-----------------------------------------|
E|-3-----------------------------------------------------------|

G         D                     C            D
I dug my grave but there were blanks in the gun
G         D        C    D                     G
Sitting beside you I swore you were the only one
          D      C                    D
Goodbye friends true love and happy endings
G     D       C     D    Am
It's all the same

Chorus:

D          G            D                Am
Forgive me I must have just been lonely baby
D          G            D                     Am
Forgive me I must have just thought I was in love
D                    G   D  Am7
Forgive me but don't ask me why
               D             G   D  C  D
My fingers crossed until I die


G         D       C            D       G
And the light shining in your eyes
      D            C      D
It changed me for good
                      G
And that's a while darling
D              C
That's what I call you...
D              G                D     Am
That's what I call you when I dream


Chorus:

D          G            D                Am
Forgive me I must have just been lonely baby
D          G            D                     Am
Forgive me I must have just thought I was in love
D                    G   D  Am7
Forgive me but don't ask me why
               D             G   D  C  D
My fingers crossed until I die

G     D                   C            D
No obstacles between my heart and my words
G         D          G           C
My lips the great liaison to my soul


G                  D            C      D
Girl you make me feel like a lonely cowboy
G      D       C              D
Alone on the range late at night
G             D                 C      D
You make me feel just like a lonely cowboy

G
But it's alright
D
It's alright
C
It's alright
D
It's all right


Solo:

E|----------------------------------------------------------|
B|----------------------------------------------------------|
G|-------12—-14b16—-16r14--12------12-----------------------|
D|-12h14-----------------------14------14-------------------|
A|----------------------------------------------------------|
E|----------------------------------------------------------|

                                                                                         
                        
E|------------------------------------------------------~---|
B|-------12-15-12------------12-15-12------------12-15-12---|
G|-14b16--------------14b16---------------14b16-------------|
D|----------------------------------------------------------|
A|----------------------------------------------------------|
E|----------------------------------------------------------|

E|----------------------------------------------------------|
B|----------------------------------------------------------|
G|----12h14p12----------------------------------------------|
D|--------------14---12---/9---7\---------------------------|
A|----------------------------------------------------------|
E|----------------------------------------------------------|

E|----------------------------------------------------------|
B|----------------------------------------------------------|
G|-/9--7--5------------------/9--7--5-----------------------|
D|-----------/9--7--5--5---5----------/9--7--7--5--5--------|
A|----------------------------------------------------------|
E|----------------------------------------------------------|


E|----------------------------------------------------------|
B|----------------------------------------------------------|
G|---/9--7--5-------------------/9--7--5--------------------|
D|-5-----------/9--7--5--5----5------------/9--7--5---------|
A|----------------------------------------------------------|
E|----------------------------------------------------------|
Добавлено: 07.07.2012
Другие материалы по этой песне:
  • Аккорды и текст

Страница создана 20.04.2012
http://primanota.ru/virginia-coalition/lonely-cowboy-chords.htm
Привет, Гость.
Предлагаем пройти революционный курс по гитаре.
Подарок от PrimaNota.Ru, забирай!