PrimaNota.ru - самый крупный в мире бесплатный архив песенных текстов, аккордов, табулатур и нот


Virgin Steele - Perfect Mansions (Mountains Of The Sun) - текст песни, таба, видео

Регистрация Запомнить меня
Войти через:  Facebook Google Twitter Vk Yandex Mail.ru

Virgin Steele - Perfect Mansions (Mountains Of The Sun) - текст песни, таба, видео

Печатать
Просмотров: 146
[Intro:]

             x2
----------------------------------|---------------------|
----------------------------------|---------------------|
----------------------------------|---------------------|
-8--6--4--6----8--6--6---10-11-10-|-------3--4--6---4---|
-6--6--4--4----6--6--4---8--9--8--|-4--6--1--2--4---2---|  Dm# C# Bb F#
----4--2----------4---------------|-2--4----------------|

Dm# F# G# C#


Dm#         F#   G#                  C#
 The day is over, the setting of the sun
 My wounds are many, evening has begun
 A mist is falling before my eyes
 My soul is free now to shadow forth and rise


[Pre-Chorus:]

B             C#                  Dm#
 To tread the paths that none has seen
B            C#             Dm#
 The Mystic Rose, the Empyrean
B        C#      F#  Em# Dm# C#
 Gone forever my days of valor
B       C#
 I will meet you in the sun


-----------------------------|------------------------------|
-----------------------------|------------------------------|
-----------------------------|------------------------------|
-8-8-8-6-8---11-10--4--6-3-6-|-8-8-8-6-8--10-11-13--4--6----|
-6-6-6-4-6---9--8---2--4-1-4-|-6-6-6-4-6--8--9--11--2--4--6-|
-----------------------------|----------------------------4-|


[Chorus:]

F#      C#              Dm#          B
 I will stay tonight in your perfect mansions
F#         C#            Dm#
 Where the silver horses run
F#      C#              B         Dm#
 I will rest my head in fields of glory once more
F#      C#            Dm#
 In the palace of the sky


 The gods are mighty, children of the brave
 Lord Poseidon, a message on the waves
 The age is passing, the white ship rides
 A voice is calling way beyond the skies

 Tell her that you saw me stand (proud)
 And you look into my eyes, (no fear was waiting)
 Tell her that her name was on my lips when I died
 I will meet her in the sun

 [Chorus]

B               G#        B            G#
 Death makes us innocent, all truths remain
     B             G#         C#                    Dm#
 The white ship is summoning, ride the winds of the sky!!!


 [Solo] Dm# G# F# C#  + Pre-Chorus chords


    Dm#             F#         G#               C#
 We rise above the world and we soar above the waves
 With the last of all my breath I slew the best of seven wraiths
 Fortune is now waiting like a vulture in the sky
 Tears of blood are falling as the god of winter dies

(Intro Riff)
 And now we ride... silver horses of night
 (Remember)... I'll meet you again in the sun
 On holy, holy ground... We ride..
Добавлено: 02.12.2013
Другие материалы по этой песне:
  • Аккорды и текст

Страница создана 15.07.2012
http://primanota.ru/virgin-steele/perfect-mansions-mountains-of-the-sun-chords.htm
Привет, Гость.
Предлагаем пройти революционный курс по гитаре.
Подарок от PrimaNota.Ru, забирай!