PrimaNota.ru - самый крупный в мире бесплатный архив песенных текстов, аккордов, табулатур и нот


Violent Work Of Art - Different Problem Same Solution - таба, видео

Регистрация Запомнить меня
Войти через:  Facebook Google Twitter Vk Yandex Mail.ru

Violent Work Of Art - Different Problem Same Solution - таба, видео

Печатать
Просмотров: 84
Уроки эстрадного вокала в Санкт-Петербурге
Different Problem, Same solution
By Violent work of Art

\----------------------------------------\
\----------------------------------------\
\----------------------------------------\
\----------------------------------------\    < Intro Riff, and when 
\----7--7--6--7--7--6--7--7--6--7--7—9~~-\      he's singing
\----5--5--4--5--5--4--5--5--4--5--5—7~~-\  "Different problem, same solution!”

\----------------------------\
\----------------------------\
\----------------------------\
\----------------------------\     < The Verses, this goes between 
\----7--7----7----7--7-------\                all the words 
\----5--5----5----5--5-------\

\-------------------------------------------------\
\-------------------------------------------------\
\-------------------------------------------------\
\-------------------------------------------------\
\---9--3--5--7-----9-----9---3--5-----7-----9-----\
\---7--1--3--5-----7-----7---1--3-----5-----7-----\
       Mutilating myself     Become someone else    

\-------------------------------------------------\
\-------------------------------------------------\
\-------------------------------------------------\
\-------------------------------------------------\
---9--3---5----7-------9—7---9--9--8--5--5--------\
---7--1---3----5-------7—5---7--7--6--3--3--------\
   In darkness I find       My inner strength


\-------------\          \-----------------------\     
\-------------\          \-----------------------\
\-------------\ 3x...    \-----------------------\
\-------------\  Then >  \-----------------------\
\--7~~--X-X---\          \---7--7--9--9--7--7----\   
\--5~~--X-X---\          \---5--5--7--7--5--5----\

The more I cut, the more I bleed
I am my only enemy
The more I bleed, the more I fail
SELF INFLICTED!!!

Different problem, same solution
Different problem, same solution
Different problem, same solution
Another kind of pain

Salvation lies within the cell
Pain is all I need to fail
A brand new state of misery
Ter-min-a-tion

Mutilating myself
Become someone else
In darkness I find
My inner strength

The greatest cause, the greater pain
I know I'll never be the same
Whatever is my destiny
I don't need mySELFFFF!

Mutilating myself
Become someone else
In darkness I find
My inner strength

I lie with my shame
My pain was sever
I need to regain
My inner strength

This life is useless
I cannot win
This life is useless
I cannot win

Mutilating myself
Become someone else
In darkness I find
My inner strength

I lie with my shame
My pain was sever
I need to regain
My inner strength

TaBbEd BYYYYY.......... Ky the Spy from ~Out of Stock~
A.K.A. Kyle Francis Mara
Comments?... I'm at Kfmara12@hotmail.com
Watch out, I'm not in good agreement

Violent work of art can be found...
http://www.iuma.com/IUMA/Bands/Violent_work_of_art/lyrics-0.html
Добавлено: 11.04.2012
Вам также может быть интересно:
Другие материалы по этой песне:
  • Аккорды и текст

Страница создана 11.04.2012
http://primanota.ru/violent-work-of-art/different-problem-same-solution-chords.htm
Привет, Гость.
Предлагаем пройти революционный курс по гитаре.
Подарок от PrimaNota.Ru, забирай!