PrimaNota.ru - самый крупный в мире бесплатный архив песенных текстов, аккордов, табулатур и нот


Violent Soho - Slippery Tongue - текст песни, таба, видео

Регистрация Запомнить меня
Войти через:  Facebook Google Twitter Vk Yandex Mail.ru

Violent Soho - Slippery Tongue - текст песни, таба, видео

Печатать
Просмотров: 83
-------------------------------------------------------------------------------
                        SLIPPERY TONGUE - Violent Soho
-------------------------------------------------------------------------------

Tuning: Drop D - DADGBe

-------------------------------------------------------------------------------

Intro / Verses

e|---------------------------------------------------------------------------|
B|---------------------------------------------------------------------------|
G|---------------------------------------------------------------------------|
D|---7-7-7-7-7-7-7-7---------------------------------------------------------|
A|---7-7-7-7-7-7-7-7---0-7-9-12---0-7-9-7------------------------------------|
D|---7-7-7-7-7-7-7-7---0-0-0-0----0-0-0-0------------------------------------|


Chorus

e|---------------------------------------------------------------------------|
B|---------------------------------------------------------------------------|
G|---------------------------------------------------------------------------|
D|---7-7-7--0-0--3-3-3--6-6-6--6-6-6-6-6-------------------------------------|
A|---7-7-7--0-0--3-3-3--4-4-4--6-6-6-6-6-------------------------------------|
D|---7-7-7--0-0--3-3-3---------6-6-6-6-6-------------------------------------|


Bridge

e|---------------------------------------------------------------------------|
B|---------------------------------------------------------------------------|
G|---------------------------------------------------------------------------|
D|---7-7-7----7----3---------------------------------------------------------|
A|---5-5-5----7----3---------------------------------------------------------|
D|---0-0-0----7----3---------------------------------------------------------|





Добавлено: 12.02.2016
Другие материалы по этой песне:
  • Аккорды и текст

Страница создана 22.02.2014
http://primanota.ru/violent-soho/slippery-tongue-chords.htm
Привет, Гость.
Предлагаем пройти революционный курс по гитаре.
Подарок от PrimaNota.Ru, забирай!