PrimaNota.ru - самый крупный в мире бесплатный архив песенных текстов, аккордов, табулатур и нот


Violent Soho - Paper Plane - таба, видео

Регистрация Запомнить меня
Войти через:  Facebook Google Twitter Vk Yandex Mail.ru

Violent Soho - Paper Plane - таба, видео

Печатать
Просмотров: 384
Уроки эстрадного вокала в Санкт-Петербурге
This is my second ever tab. I saw it wasn't done anywhere so just listened to it heaps and tabbed it
by ear, so there might be a few mistakes. I also tried to do the lyrics by ear because they couldn't be found
online either. If there is mistakes in either just email me at aaronkylehayes@hotmail.com or of course comment
down below.

I put in the tab something about playing the song in a "happier" way, and what I mean is in the pre-chorus and
chorus play the D up on the 12th fret instead of open, you'll understand when you get there! Thanks all for 
stopping by, it's a wonderful song, enjoy the tab!


Verse
E|--------------------------------------------------|
B|--------------------------------------------------|
G|--------------------------------------------------|
D|--0--0--0--0--0--0--0--0--4--4--4--4--4--4--4--4--| (x4)
A|--0--0--0--0--0--0--0--0--4--4--4--4--4--4--4--4--|
D|--0--0--0--0--0--0--0--0--4--4--4--4--4--4--4--4--|
   
I don't know the facts
Bout people and their feelings
Separate the cracks
Chemical let's breathe it


Pre-chorus
E|----------------------------------------------------------------------------------------------------|
B|----------------------------------------------------------------------------------------------------|
G|----------------------------------------------------------------------------------------------------|
D|----9--9--9--9--9--9--9--9--8--8--8--8--8--8--8--8--0--0--0--0--0--0--0--0--5--5--5--5--5--5--5--5--| (x2)
A|----9--9--9--9--9--9--9--9--8--8--8--8--8--8--8--8--0--0--0--0--0--0--0--0--5--5--5--5--5--5--5--5--|
D|----9--9--9--9--9--9--9--9--8--8--8--8--8--8--8--8--0--0--0--0--0--0--0--0--5--5--5--5--5--5--5--5--|
                                                    /                         \
I will be true                                     | I find that if I want it  |
I will follow you                                  | to sound a bit "happier"  |
I'll fly away                                      | I play it higher up :)    |
In your paper plane                                |                           |
They'll bleed my brain                             | -12-12-12-12-12-12-12-12- |
I will suffocate                                   | -12-12-12-12-12-12-12-12- |
Like a wither die?                                 | -12-12-12-12-12-12-12-12- |
I'll fade away                                     |___________________________| 
                                                   /
                                      ____________/____________
                                     |same "happier" thing here|
Chorus                                ¯¯¯¯¯¯¯¯¯¯¯¯¯¯¯¯¯¯¯¯¯¯¯¯¯ 
E|----------------------------------|---------------------------------------------------|
B|----------------------------------|---------------------------------------------------|
G|----------------------------------|---------------------------------------------------|
D|----4--4--4--4--4--4--4--4--(x1)--|---0--0--0--0--0--0--0--0--5--5--5--5--5--5--5--5--| (x4)
A|----4--4--4--4--4--4--4--4--------|---0--0--0--0--0--0--0--0--5--5--5--5--5--5--5--5--|
D|----4--4--4--4--4--4--4--4--------|---0--0--0--0--0--0--0--0--5--5--5--5--5--5--5--5--|
                                    _____________________________________________________
I'll wait my stay for you
All my days                        E|-------------------------------|
All for you                        B|-------------------------------|  This is played by a
All my days                        G|-------------------------------|  2nd guitar & you can
                                   D|------------4------------------|  and you could even get
                                   A|---5--4--5-----5--4--5--4--5v--|  a violin like the song.
                                   D|-------------------------------|


Pre-chorus
E|----------------------------------------------------------------------------------------------------|
B|----------------------------------------------------------------------------------------------------|
G|----------------------------------------------------------------------------------------------------|
D|----9--9--9--9--9--9--9--9--8--8--8--8--8--8--8--8--0--0--0--0--0--0--0--0--5--5--5--5--5--5--5--5--| (x3)
A|----9--9--9--9--9--9--9--9--8--8--8--8--8--8--8--8--0--0--0--0--0--0--0--0--5--5--5--5--5--5--5--5--|
D|----9--9--9--9--9--9--9--9--8--8--8--8--8--8--8--8--0--0--0--0--0--0--0--0--5--5--5--5--5--5--5--5--|

They can lift and pray
All their wishes away
But I'll fly today
In your paper plane
In my own words
I am too scared to say
My religious cause
My separate grave?
In whispers and chords
That were molded on you
I will compete
I will stay true 


Chorus                               
E|----------------------------------|---------------------------------------------------|
B|----------------------------------|---------------------------------------------------|
G|----------------------------------|---------------------------------------------------|
D|----4--4--4--4--4--4--4--4--(x1)--|---0--0--0--0--0--0--0--0--5--5--5--5--5--5--5--5--| (x8)
A|----4--4--4--4--4--4--4--4--------|---0--0--0--0--0--0--0--0--5--5--5--5--5--5--5--5--|
D|----4--4--4--4--4--4--4--4--------|---0--0--0--0--0--0--0--0--5--5--5--5--5--5--5--5--|
                                    _____________________________________________________
I'll wait my stay for you
All my days                        E|-------------------------------|
All for you                        B|-------------------------------|
All my days                        G|-------------------------------| 
All for you                        D|------------4------------------| 
All my days                        A|---5--4--5-----5--4--5--4--5v--|
All my days                        D|-------------------------------|
All my days
All for you                        
Добавлено: 02.07.2015
Другие материалы по этой песне:
  • Аккорды и текст

Страница создана 02.07.2015
http://primanota.ru/violent-soho/paper-plane-chords.htm
Привет, Гость.
Предлагаем пройти революционный курс по гитаре.
Подарок от PrimaNota.Ru, забирай!