PrimaNota.ru - самый крупный в мире бесплатный архив песенных текстов, аккордов, табулатур и нот


Violent Soho - Like Soda - таба, видео

Регистрация Запомнить меня
Войти через:  Facebook Google Twitter Vk Yandex Mail.ru

Violent Soho - Like Soda - таба, видео

Печатать
Просмотров: 63
Violent Soho
"Like Soda"
Like Soda (2015)

Tuning - Drop D (DADGBe)

Hey guys, just found this song today and wanted to tab 
it up for all of you. It's a pretty straight forward song, 
nothing crazy. Without videos to watch them play it's 
pretty hard for me to tell you this is perfect, but if 
nothing else, it's close enough that you can play it 
yourself. Questions, comments, concerns, let me know.

Intro: (clean)
(0:00-0:28) (x4)
  1  2  3  4    1  2  3  4    1  2  3  4    1  2  3  4
|-------------|-------------|-------------|-------------|
|-------------|-------------|-------------|-------------|
|-------------|-------------|-------------|-------------|
|-2~~---------|-4~~---------|-------------|-------------|
|-0~~---------|-2~~---------|-0~~---------|(0)~~--------|
|-------------|-------------|-0~~---------|(0)~~--------|


(0:29-0:44) (x2)
  1 ^ 2 ^ 3 ^ 4 ^   1 ^ 2 ^ 3 ^ 4 ^   1 ^ 2 ^ 3 ^ 4 ^   1 ^ 2 ^ 3 ^ 4 ^
|-----------------|-----------------|-----------------|-----------------|
|-----------------|-----------------|-----------------|-----------------|
|-----------------|-----------------|-----------------|-----------------|
|-2-2-2-2-2-2-2-2-|-4-4-4-4-4-4-4-4-|-----------------|-----------------|
|-0-0-0-0-0-0-0-0-|-2-2-2-2-2-2-2-2-|-0-0-0-0-0-0-0-0-|-4-4-4-4-4-4-4-4-|
|-----------------|-----------------|-0-0-0-0-0-0-0-0-|-4-4-4-4-4-4-4-4-|
  * * * * * * * *   * * * * * * * *   * * * * * * * *   * * * * * * * *


(0:45-0:54)
  1 ^ 2 ^ 3 ^ 4 ^   1 ^ 2 ^ 3 ^ 4 ^   1 ^ 2 ^ 3 ^ 4 ^
|-----------------|-----------------|-----------------|
|-----------------|-----------------|-----------------|
|-----------------|-----------------|-----------------|
|-2-2-2-2-2-2-2-2-|-4-4-4-4-4-4-4-4-|-----------------|
|-0-0-0-0-0-0-0-0-|-2-2-2-2-2-2-2-2-|-0-0-0-0-0-0-0-0-|
|-----------------|-----------------|-0-0-0-0-0-0-0-0-|
  * * * * * * * *   * * * * * * * *   * * * * * * * *

Guitar 1 (clean)
  1 ^ 2 ^ 3 ^ 4 ^   1 ^ 2 ^ 3 ^ 4 ^  
|-----------------|-----------------|
|-----------------|-----------------|
|-----------------|-----------------|
|-----------------|-----------------|
|-4-4-4-4-4-4-4-4-|-4-4-4-4-4-4-4-4-|
|-4-4-4-4-4-4-4-4-|-4-4-4-4-4-4-4-4-|
| * * * * * * * *   * * * * * * * * |
|                                   |
Guitar 2 (distorted)                |
| 1 ^ 2 ^ 3 ^ 4 ^   1 ^ 2 ^ 3 ^ 4 ^ |
|-----------------|-----------------|
|-----------------|-----------------|
|-----------------|-----------------|
|-----------------|-44x4----------xx|
|-----------------|-44x4----------xx|
|-----------------|-44x4----------xx|


Verse: (distorted)
(0:55-1:09)
  1 ^ 2 ^ 3 ^ 4 ^   1 ^ 2 ^ 3 ^ 4 ^   1 ^ 2 ^ 3 ^ 4 ^   1 ^ 2 ^ 3 ^ 4 ^
|-----------------|-----------------|-----------------|-----------------|
|-----------------|-----------------|-----------------|-----------------|
|-----------------|-----------------|-----------------|-----------------|
|-7-7-7-7-7-7-7-7-|-7-7-7-7-7-7-7-7-|-7-7-7-7-7-7-7-7-|-7-7-7-7-7-7-7-7-|
|-7-7-7-7-7-7-7-7-|-7-7-7-7-7-7-7-7-|-7-7-7-7-7-7-7-7-|-7-7-7-7-7-7-7-7-|
|-7-7-7-7-7-7-7-7-|-7-7-7-7-7-7-7-7-|-7-7-7-7-7-7-7-7-|-7-7-7-7-7-7-7-7-|

  1  ^  2  ^  3  ^  4  ^    1  ^  2  ^  3  ^  4  ^   
|-------------------------|-------------------------|
|-------------------------|-------------------------|
|-------------------------|-------------------------|
|-12-12-12-12-12-12-12-12-|-12-12-12-12-12-12-12-12-|
|-12-12-12-12-12-12-12-12-|-12-12-12-12-12-12-12-12-|
|-12-12-12-12-12-12-12-12-|-12-12-12-12-12-12-12-12-|

  1  ^  2  ^  3  ^  4  ^    1  ^  2  ^  3  ^  4  ^   
|-------------------------|-------------------------|
|-------------------------|-------------------------|
|-------------------------|-------------------------|
|-4--4--4--4--4--4--4--4--|-4--4--4--4--4--4--4--4--|
|-4--4--4--4--4--4--4--4--|-4--4--4--4--4--4--4--4--|
|-4--4--4--4--4--4--4--4--|-4--4--4--4--4--4--4--4--|


(1:10-1:22)
Guitar 1 (distorted)
  1  ^  2  ^  3  ^  4  ^    1  ^  2  ^  3  ^  4  ^   
|-------------------------|-------------------------|
|-------------------------|-------------------------|
|-------------------------|-------------------------|
|-7--7--7--7--7--7--7--7--|-7--7--7--7--7--7--7--7--|
|-7--7--7--7--7--7--7--7--|-7--7--7--7--7--7--7--7--|
|-7--7--7--7--7--7--7--7--|-7--7--7--7--7--7--7--7--|
|                                                   |
Guitar 2 (distorted)                                |
| 1  ^  2  ^  3  ^  4  ^    1  ^  2  ^  3  ^  4  ^  |
|-------------------------|-------------------------|
|-------------------------|-------------------------|
|-14-14-14-14-14-14-14-13-|-13-13-13-13-13-13-13-13-|
|-------------------------|-------------------------|
|-12-12-12-12-12-12-12-11-|-11-11-11-11-11-11-11-11-|
|-------------------------|-------------------------|

Guitar 1 (distorted)
  1  ^  2  ^  3  ^  4  ^    1  ^  2  ^  3  ^  4  ^   
|-------------------------|-------------------------|
|-------------------------|-------------------------|
|-------------------------|-------------------------|
|-7--7--7--7--7--7--7--7--|-7--7--7--7--7--7--7--7--|
|-7--7--7--7--7--7--7--7--|-7--7--7--7--7--7--7--7--|
|-7--7--7--7--7--7--7--7--|-7--7--7--7--7--7--7--7--|
|                                                   |
Guitar 2 (distorted)                                |
| 1  ^  2  ^  3  ^  4  ^    1  ^  2  ^  3  ^  4  ^  |
|-------------------------|-------------------------|
|-------------------------|-------------------------|
|-14-14-14-14-14-14-14-13-|-13-13-13-13-13-13-13-13-|
|-------------------------|-------------------------|
|-12-12-12-12-12-12-12-11-|-11-11-11-11-11-11-11-11-|
|-------------------------|-------------------------|

Guitar 1 (distorted)
  1  ^  2  ^  3  ^  4  ^    1  ^  2  ^  3  ^  4  ^   
|-------------------------|-------------------------|
|-------------------------|-------------------------|
|-------------------------|-------------------------|
|-12-12-12-12-12-12-12-12-|-12-12-12-12-12-12-12-12-|
|-12-12-12-12-12-12-12-12-|-12-12-12-12-12-12-12-12-|
|-12-12-12-12-12-12-12-12-|-12-12-12-12-12-12-12-12-|
|                                                   |
Guitar 2 (distorted)                                |
| 1  ^  2  ^  3  ^  4  ^    1  ^  2  ^  3  ^  4  ^  |
|-------------------------|-------------------------|
|-------------------------|-------------------------|
|-19-19-19-19-19-19-19-18-|-18-18-18-18-18-18-18-18-|
|-------------------------|-------------------------|
|-17-17-17-17-17-17-17-16-|-16-16-16-16-16-16-16-16-|
|-------------------------|-------------------------|

Guitar 1 (distorted)
  1  ^  2  ^  3  ^  4  ^    1  ^  2  ^  3  ^  4  ^   
|-------------------------|-------------------------|
|-------------------------|-------------------------|
|-------------------------|-------------------------|
|-4--4--4--4--4--4--4--4--|-4--4--4--4--4--4--4--4--|
|-4--4--4--4--4--4--4--4--|-4--4--4--4--4--4--4--4--|
|-4--4--4--4--4--4--4--4--|-4--4--4--4--4--4--4--4--|
|                                                   |
Guitar 2 (distorted)                                |
| 1  ^  2  ^  3  ^  4  ^    1  ^  2  ^  3  ^  4  ^  |
|-------------------------|-------------------------|
|-------------------------|-------------------------|
|-11-11-11-11-11-11-11-13-|-13-13-13-13-13b13b13b13b|
|-------------------------|-------------------------|
|-9--9--9--9--9--9--9--11-|-11-11-11-11-11-11-11-11-|
|-------------------------|-------------------------|


Pre-chorus: (clean)
(1:23-1:39)
  1 ^ 2 ^ 3 ^ 4 ^   1 ^ 2 ^ 3 ^ 4 ^   1 ^ 2 ^ 3 ^ 4 ^   1 ^ 2 ^ 3 ^ 4 ^
|-----------------|-----------------|-----------------|-----------------|
|-----------------|-----------------|-----------------|-----------------|
|-2-2-2-2-2-2-2-2-|-4-4-4-4-4-4-4-4-|-----------------|-----------------|
|-2-2-2-2-2-2-2-2-|-4-4-4-4-4-4-4-4-|-0-0-0-0-0-0-0-0-|-4-4-4-4-4-4-4-4-|
|-0-0-0-0-0-0-0-0-|-2-2-2-2-2-2-2-2-|-0-0-0-0-0-0-0-0-|-4-4-4-4-4-4-4-4-|
|-----------------|-----------------|-0-0-0-0-0-0-0-0-|-4-4-4-4-4-4-4-4-|

  1 ^ 2 ^ 3 ^ 4 ^   1 ^ 2 ^ 3 ^ 4 ^   1 ^ 2 ^ 3 ^ 4 ^
|-----------------|-----------------|-----------------|
|-----------------|-----------------|-----------------|
|-2-2-2-2-2-2-2-2-|-4-4-4-4-4-4-4-4-|-----------------|
|-2-2-2-2-2-2-2-2-|-4-4-4-4-4-4-4-4-|-0-0-0-0-0-0-0-0-|
|-0-0-0-0-0-0-0-0-|-2-2-2-2-2-2-2-2-|-0-0-0-0-0-0-0-0-|
|-----------------|-----------------|-0-0-0-0-0-0-0-0-|

  1 ^ 2 ^ 3 ^ 4 ^   1 ^ 2 ^ 3 ^ 4 ^  
|-----------------|-----------------|
|-----------------|-----------------|
|-----------------|-----------------|
|-4-4-4-4-4-4-4-4-|-4-4-4-4-4-4-4-4-|
|-4-4-4-4-4-4-4-4-|-4-4-4-4-4-4-4-4-|
|-4-4-4-4-4-4-4-4-|-4-4-4-4-4-4-4-4-|


Chorus: (distorted) (x2)
(1:40-1:53)
  1 ^ 2 ^ 3 ^ 4 ^   1 ^ 2 ^ 3 ^ 4 ^   1 ^ 2 ^ 3 ^ 4 ^   1 ^ 2 ^ 3 ^ 4 ^
|-0---0---0-0---0-|---0---0-0-0-0-0-|-----------------|-----------------|
|-0---0---0-0---0-|---0---0-0-0-0-0-|-----3---3-2-0-3-|---2---0---2-0---|
|-2---2---2-2---4-|---4---4-4-4-4-4-|-----2---2-2-2-2-|---2---2---2-2-2-|
|-2---2---2-2---4-|---4---4-4-4-4-4-|-0---0---0-0-0-0-|---0---0---0-0-0-|
|-0---0---0-0---2-|---2---2-2-2-2-2-|-0---0---0-0-0-0-|---0---0---0-0-0-|
|-----------------|-----------------|-0---0---0-0-0-0-|---0---0---0-0-0-|


Verse: (distorted)
(1:54-2:07)
  1 ^ 2 ^ 3 ^ 4 ^   1 ^ 2 ^ 3 ^ 4 ^   1 ^ 2 ^ 3 ^ 4 ^   1 ^ 2 ^ 3 ^ 4 ^
|-----------------|-----------------|-----------------|-----------------|
|-----------------|-----------------|-----------------|-----------------|
|-----------------|-----------------|-----------------|-----------------|
|-7-7-7-7-7-7-7-7-|-7-7-7-7-7-7-7-7-|-7-7-7-7-7-7-7-7-|-7-7-7-7-7-7-7-7-|
|-7-7-7-7-7-7-7-7-|-7-7-7-7-7-7-7-7-|-7-7-7-7-7-7-7-7-|-7-7-7-7-7-7-7-7-|
|-7-7-7-7-7-7-7-7-|-7-7-7-7-7-7-7-7-|-7-7-7-7-7-7-7-7-|-7-7-7-7-7-7-7-7-|

  1  ^  2  ^  3  ^  4  ^    1  ^  2  ^  3  ^  4  ^   
|-------------------------|-------------------------|
|-------------------------|-------------------------|
|-------------------------|-------------------------|
|-12-12-12-12-12-12-12-12-|-12-12-12-12-12-12-12-12-|
|-12-12-12-12-12-12-12-12-|-12-12-12-12-12-12-12-12-|
|-12-12-12-12-12-12-12-12-|-12-12-12-12-12-12-12-12-|

  1  ^  2  ^  3  ^  4  ^    1  ^  2  ^  3  ^  4  ^   
|-------------------------|-------------------------|
|-------------------------|-------------------------|
|-------------------------|-------------------------|
|-4--4--4--4--4--4--4--4--|-4--4--4--4--4--4--4--4--|
|-4--4--4--4--4--4--4--4--|-4--4--4--4--4--4--4--4--|
|-4--4--4--4--4--4--4--4--|-4--4--4--4--4--4--4--4--|
                          |                         |
                    Guitar 2 (distorted, subtle)    |
                          | 1  ^  2  ^  3  ^  4  ^  |
                          |-------------------------|
                          |-------------------------|
                          |----19\18----14----14----|
                          |-------------------------|
                          |----17\16----12----12----|
                          |-------------------------|


(2:08-2:21)
Guitar 1 (distorted)
  1  ^  2  ^  3  ^  4  ^    1  ^  2  ^  3  ^  4  ^   
|-------------------------|-------------------------|
|-------------------------|-------------------------|
|-------------------------|-------------------------|
|-7--7--7--7--7--7--7--7--|-7--7--7--7--7--7--7--7--|
|-7--7--7--7--7--7--7--7--|-7--7--7--7--7--7--7--7--|
|-7--7--7--7--7--7--7--7--|-7--7--7--7--7--7--7--7--|
|                                                   |
Guitar 2 (distorted)                                |
| 1  ^  2  ^  3  ^  4  ^    1  ^  2  ^  3  ^  4  ^  |
|-------------------------|-------------------------|
|-------------------------|-------------------------|
|-14-14-14-14-14-14-14-13-|-13-13-13-13-13-13-13-13-|
|-------------------------|-------------------------|
|-12-12-12-12-12-12-12-11-|-11-11-11-11-11-11-11-11-|
|-------------------------|-------------------------|

Guitar 1 (distorted)
  1  ^  2  ^  3  ^  4  ^    1  ^  2  ^  3  ^  4  ^   
|-------------------------|-------------------------|
|-------------------------|-------------------------|
|-------------------------|-------------------------|
|-7--7--7--7--7--7--7--7--|-7--7--7--7--7--7--7--7--|
|-7--7--7--7--7--7--7--7--|-7--7--7--7--7--7--7--7--|
|-7--7--7--7--7--7--7--7--|-7--7--7--7--7--7--7--7--|
|                                                   |
Guitar 2 (distorted)                                |
| 1  ^  2  ^  3  ^  4  ^    1  ^  2  ^  3  ^  4  ^  |
|-------------------------|-------------------------|
|-------------------------|-------------------------|
|-14-14-14-14-14-14-14-13-|-13-13-13-13-13-13-13-13-|
|-------------------------|-------------------------|
|-12-12-12-12-12-12-12-11-|-11-11-11-11-11-11-11-11-|
|-------------------------|-------------------------|

Guitar 1 (distorted)
  1  ^  2  ^  3  ^  4  ^    1  ^  2  ^  3  ^  4  ^   
|-------------------------|-------------------------|
|-------------------------|-------------------------|
|-------------------------|-------------------------|
|-12-12-12-12-12-12-12-12-|-12-12-12-12-12-12-12-12-|
|-12-12-12-12-12-12-12-12-|-12-12-12-12-12-12-12-12-|
|-12-12-12-12-12-12-12-12-|-12-12-12-12-12-12-12-12-|
|                                                   |
Guitar 2 (distorted)                                |
| 1  ^  2  ^  3  ^  4  ^    1  ^  2  ^  3  ^  4  ^  |
|-------------------------|-------------------------|
|-------------------------|-------------------------|
|-19-19-19-19-19-19-19-18-|-18-18-18-18-18-18-18-18-|
|-------------------------|-------------------------|
|-17-17-17-17-17-17-17-16-|-16-16-16-16-16-16-16-16-|
|-------------------------|-------------------------|

Guitar 1 (distorted)
  1  ^  2  ^  3  ^  4  ^    1  ^  2  ^  3  ^  4  ^   
|-------------------------|-------------------------|
|-------------------------|-------------------------|
|-------------------------|-------------------------|
|-4--4--4--4--4--4--4--4--|-4--4--4--4--4--4--4--4--|
|-4--4--4--4--4--4--4--4--|-4--4--4--4--4--4--4--4--|
|-4--4--4--4--4--4--4--4--|-4--4--4--4--4--4--4--4--|
|                                                   |
Guitar 2 (distorted)                                |
| 1  ^  2  ^  3  ^  4  ^    1  ^  2  ^  3  ^  4  ^  |
|-------------------------|-------------------------|
|-------------------------|-------------------------|
|-11-11-11-11-11-11-11-13-|-13-13-13-13-13b13b13b13b|
|-------------------------|-------------------------|
|-9--9--9--9--9--9--9--11-|-11-11-11-11-11-11-11-11-|
|-------------------------|-------------------------|


Pre-chorus: (clean)
(2:22-2:41)
  1 ^ 2 ^ 3 ^ 4 ^   1 ^ 2 ^ 3 ^ 4 ^   1 ^ 2 ^ 3 ^ 4 ^   1 ^ 2 ^ 3 ^ 4 ^
|-----------------|-----------------|-----------------|-----------------|
|-----------------|-----------------|-----------------|-----------------|
|-2-2-2-2-2-2-2-2-|-4-4-4-4-4-4-4-4-|-----------------|-----------------|
|-2-2-2-2-2-2-2-2-|-4-4-4-4-4-4-4-4-|-0-0-0-0-0-0-0-0-|-4-4-4-4-4-4-4-4-|
|-0-0-0-0-0-0-0-0-|-2-2-2-2-2-2-2-2-|-0-0-0-0-0-0-0-0-|-4-4-4-4-4-4-4-4-|
|-----------------|-----------------|-0-0-0-0-0-0-0-0-|-4-4-4-4-4-4-4-4-|

  1 ^ 2 ^ 3 ^ 4 ^   1 ^ 2 ^ 3 ^ 4 ^   1 ^ 2 ^ 3 ^ 4 ^
|-----------------|-----------------|-----------------|
|-----------------|-----------------|-----------------|
|-2-2-2-2-2-2-2-2-|-4-4-4-4-4-4-4-4-|-----------------|
|-2-2-2-2-2-2-2-2-|-4-4-4-4-4-4-4-4-|-0-0-0-0-0-0-0-0-|
|-0-0-0-0-0-0-0-0-|-2-2-2-2-2-2-2-2-|-0-0-0-0-0-0-0-0-|
|-----------------|-----------------|-0-0-0-0-0-0-0-0-|

  1 ^ 2 ^ 3 ^ 4 ^   1 ^ 2 ^ 3 ^ 4 ^   1 ^ 2 ^ 3 ^ 4 ^   1 ^ 2 ^ 3 ^ 4 ^
|-----------------|-----------------|-----------------|-----------------|
|-----------------|-----------------|-----------------|-----------------|
|-----------------|-----------------|-----------------|-----------------|
|-4-4-4-4-4-4-4-4-|-4-4-4-4-4-4-4-4-|-4-4-4-4-4-4-4-4-|-4-4-4-4-4-4-4-4-|
|-4-4-4-4-4-4-4-4-|-4-4-4-4-4-4-4-4-|-4-4-4-4-4-4-4-4-|-4-4-4-4-4-4-4-4-|
|-4-4-4-4-4-4-4-4-|-4-4-4-4-4-4-4-4-|-4-4-4-4-4-4-4-4-|-4-4-4-4-4-4-4-4-|
|                                   |                                   |
Guitar 2 (distorted)                |                                   |
| 1 ^ 2 ^ 3 ^ 4 ^   1 ^ 2 ^ 3 ^ 4 ^ | 1 ^ 2 ^ 3 ^ 4 ^   1 ^ 2 ^ 3 ^ 4 ^ |
|-----------------|-----------------|-----------------|-----------------|
|-----------------|-----------------|-----------------|-----------------|
|-6-6-6-6-6-6-6-6-|-6-6-6-6-6-6-6-6-|-6-6-6-6-6-6-6-6-|-6b6b6b6b6b6b6b6b|
|-----------------|-----------------|-----------------|-----------------|
|-4-4-4-4-4-4-4-4-|-4-4-4-4-4-4-4-4-|-4-4-4-4-4-4-4-4-|-4-4-4-4-4-4-4-4-|
|-----------------|-----------------|-----------------|-----------------|
                                    |                                   |
                                  Guitar 3? (distorted)                 |
                                    | 1 ^ 2 ^ 3 ^ 4 ^   1 ^ 2 ^ 3 ^ 4 ^ |
                                    |-9-9-9-9-9-9-9-9-|-9b9b9b9b9b9b9b9b|
                                    |-----------------|-----------------|
                                    |-----------------|-----------------|
                                    |-----------------|-----------------|
                                    |-----------------|-----------------|
                                    |-----------------|-----------------|



Chorus: (distorted)
(2:42-2:58)
  1 ^ 2 ^ 3 ^ 4 ^   1 ^ 2 ^ 3 ^ 4 ^   1 ^ 2 ^ 3 ^ 4 ^   1 ^ 2 ^ 3 ^ 4 ^
|-0---0---0-0---0-|---0---0-0-0-0-0-|-----------------|-----------------|
|-0---0---0-0---0-|---0---0-0-0-0-0-|-----3---3-2-0-3-|---2---0---2-0---|
|-2---2---2-2---4-|---4---4-4-4-4-4-|-----2---2-2-2-2-|---2---2---2-2-2-|
|-2---2---2-2---4-|---4---4-4-4-4-4-|-0---0---0-0-0-0-|---0---0---0-0-0-|
|-0---0---0-0---2-|---2---2-2-2-2-2-|-0---0---0-0-0-0-|---0---0---0-0-0-|
|-----------------|-----------------|-0---0---0-0-0-0-|---0---0---0-0-0-|

  1 ^ 2 ^ 3 ^ 4 ^   1 ^ 2 ^ 3 ^ 4 ^   1 ^ 2 ^ 3 ^ 4 ^   1 ^ 2 ^ 3 ^ 4 ^
|-0---0---0-0---0-|---0---0-0-0-0-0-|-----------------|-----------------|
|-0---0---0-0---0-|---0---0-0-0-0-0-|-----3---3-2-0-3-|---2---0---2-0---|
|-2---2---2-2---4-|---4---4-4-4-4-4-|-----2---2-2-2-2-|---2---2---2-2-2-|
|-2---2---2-2---4-|---4---4-4-4-4-4-|-0---0---0-0-0-0-|---0---0---0-0-0-|
|-0---0---0-0---2-|---2---2-2-2-2-2-|-0---0---0-0-0-0-|---0---0---0-0-0-|
|-----------------|-----------------|-0---0---0-0-0-0-|---0---0---0-0-0-|

  1 ^ 2 ^ 3 ^ 4 ^   1 ^ 2 ^ 3 ^ 4 ^  
|-----------------|-----------------|
|-----3---3-3-3-3-|---3-3-3-3-3-3-3-|
|-----2---2-2-2-2-|---2-2-2-2-2-2-2-|
|-----0---0-0-0-0-|---0-0-0-0-0-0-0-|
|-----0---0-0-0-0-|---0-0-0-0-0-0-0-|
|-----0---0-0-0-0-|---0-0-0-0-0-0-0-|


Solo:
(2:59-3:14)
Guitar 1 (distorted)
  1  ^  2  ^  3  ^  4  ^    1  ^  2  ^  3  ^  4  ^    1  ^  2  ^  3  ^  4  ^
|-0-----0-----0--0-----0--|----0-----0--0--0--0--0--|-------------------------|
|-0-----0-----0--0-----0--|----0-----0--0--0--0--0--|-------3-----3--2--0--3--|
|-2-----2-----2--2-----4--|----4-----4--4--4--4--4--|-------2-----2--2--2--2--|
|-2-----2-----2--2-----4--|----4-----4--4--4--4--4--|-0-----0-----0--0--0--0--|
|-0-----0-----0--0-----2--|----2-----2--2--2--2--2--|-0-----0-----0--0--0--0--|
|-------------------------|-------------------------|-0-----0-----0--0--0--0--|
|                                                                             |
Guitar 2 (distorted)                                                          |
| 1  ^  2  ^  3  ^  4  ^    1  ^  2  ^  3  ^  4  ^    1  ^  2  ^  3  ^  4  ^  |
|-------------------------|-------------------------|-------------------------|
|-------12----14-12----15-|----14----12----14-12----|-------12----14-12----15-|
|-14vv-----14-------14----|-14----14----14-------14-|-14-14----14-------14----|
|-------------------------|-------------------------|-------------------------|
|-------------------------|-------------------------|-------------------------|
|-------------------------|-------------------------|-------------------------|

Guitar 1 
  1  ^  2  ^  3  ^  4  ^    1  ^  2  ^  3  ^  4  ^    1  ^  2  ^  3  ^  4  ^
|-------------------------|-0-----0-----0--0-----0--|----0-----0--0--0--0--0--|
|----2-----0-----2--0-----|-0-----0-----0--0-----0--|----0-----0--0--0--0--0--|
|----2-----2-----2--2--2--|-2-----2-----2--2-----4--|----4-----4--4--4--4--4--|
|----0-----0-----0--0--0--|-2-----2-----2--2-----4--|----4-----4--4--4--4--4--|
|----0-----0-----0--0--0--|-0-----0-----0--0-----2--|----2-----2--2--2--2--2--|
|----0-----0-----0--0--0--|-------------------------|-------------------------|
|                                                                             |
Guitar 2                                                                      |
| 1  ^  2  ^  3  ^  4  ^    1  ^  2  ^  3  ^  4  ^    1  ^  2  ^  3  ^  4  ^  |
|-------------------------|-------14----14-------12-|-------12-------12-------|
|----14----12----14-12----|-14vv-----14----14-14----|-14-14----14-14----14-14-|
|-14----14----14-------14-|-------------------------|-------------------------|
|-------------------------|-------------------------|-------------------------|
|-------------------------|-------------------------|-------------------------|
|-------------------------|-------------------------|-------------------------|

Guitar 1 
  1  ^  2  ^  3  ^  4  ^    1  ^  2  ^  3  ^  4  ^
|-------------------------|-------------------------|
|-------3-----3--2--0--3--|----2-----0-----2--0-----|
|-------2-----2--2--2--2--|----2-----2-----2--2--2--|
|-0-----0-----0--0--0--0--|----0-----0-----0--0--0--|
|-0-----0-----0--0--0--0--|----0-----0-----0--0--0--|
|-0-----0-----0--0--0--0--|----0-----0-----0--0--0--|
|                                                   |
Guitar 2                                            |
| 1  ^  2  ^  3  ^  4  ^    1  ^  2  ^  3  ^  4  ^  |
|-12-12-12-12-12-12-12-12-|-12-12-12-12-12-12-12-12-|
|-15-14-14-15-14-14-15-14-|-14-15-14-14-15-14-15-14-|
|-------------------------|-------------------------|
|-------------------------|-------------------------|
|-------------------------|-------------------------|
|-------------------------|-------------------------|


Chorus: (distorted) (x2)
(3:14-3:28)
  1 ^ 2 ^ 3 ^ 4 ^   1 ^ 2 ^ 3 ^ 4 ^   1 ^ 2 ^ 3 ^ 4 ^   1 ^ 2 ^ 3 ^ 4 ^
|-0---0---0-0---0-|---0---0-0-0-0-0-|-----------------|-----------------|
|-0---0---0-0---0-|---0---0-0-0-0-0-|-----3---3-2-0-3-|---2---0---2-0---|
|-2---2---2-2---4-|---4---4-4-4-4-4-|-----2---2-2-2-2-|---2---2---2-2-2-|
|-2---2---2-2---4-|---4---4-4-4-4-4-|-0---0---0-0-0-0-|---0---0---0-0-0-|
|-0---0---0-0---2-|---2---2-2-2-2-2-|-0---0---0-0-0-0-|---0---0---0-0-0-|
|-----------------|-----------------|-0---0---0-0-0-0-|---0---0---0-0-0-|

(3:28-3:42)
Guitar 1 (distorted)
  1  ^  2  ^  3  ^  4  ^    1  ^  2  ^  3  ^  4  ^    1  ^  2  ^  3  ^  4  ^
|-0-----0-----0--0-----0--|----0-----0--0--0--0--0--|-------------------------|
|-0-----0-----0--0-----0--|----0-----0--0--0--0--0--|-------3-----3--2--0--3--|
|-2-----2-----2--2-----4--|----4-----4--4--4--4--4--|-------2-----2--2--2--2--|
|-2-----2-----2--2-----4--|----4-----4--4--4--4--4--|-0-----0-----0--0--0--0--|
|-0-----0-----0--0-----2--|----2-----2--2--2--2--2--|-0-----0-----0--0--0--0--|
|-------------------------|-------------------------|-0-----0-----0--0--0--0--|
|                                                                             |
Guitar 2 (distorted)                                                          |
| 1  ^  2  ^  3  ^  4  ^    1  ^  2  ^  3  ^  4  ^    1  ^  2  ^  3  ^  4  ^  |
|-------------------------|-------------------------|-------------------------|
|-------12----14-12----15-|----14----12----14-12----|-------12----14-12----15-|
|-14vv-----14-------14----|-14----14----14-------14-|-14-14----14-------14----|
|-------------------------|-------------------------|-------------------------|
|-------------------------|-------------------------|-------------------------|
|-------------------------|-------------------------|-------------------------|

Guitar 1 
  1  ^  2  ^  3  ^  4  ^    1  ^  2  ^  3  ^  4  ^    1  ^  2  ^  3  ^  4  ^
|-------------------------|-0-----0-----0--0-----0--|----0-----0--0--0--0--0--|
|----2-----0-----2--0-----|-0-----0-----0--0-----0--|----0-----0--0--0--0--0--|
|----2-----2-----2--2--2--|-2-----2-----2--2-----4--|----4-----4--4--4--4--4--|
|----0-----0-----0--0--0--|-2-----2-----2--2-----4--|----4-----4--4--4--4--4--|
|----0-----0-----0--0--0--|-0-----0-----0--0-----2--|----2-----2--2--2--2--2--|
|----0-----0-----0--0--0--|-------------------------|-------------------------|
|                                                                             |
Guitar 2                                                                      |
| 1  ^  2  ^  3  ^  4  ^    1  ^  2  ^  3  ^  4  ^    1  ^  2  ^  3  ^  4  ^  |
|-------------------------|-------------------------|-------------------------|
|----14----12----14-12----|-------12----14-12----15-|----14----12----14-12----|
|-14----14----14-------14-|-14-14----14-------14----|-14----14----14-------14-|
|-------------------------|-------------------------|-------------------------|
|-------------------------|-------------------------|-------------------------|
|-------------------------|-------------------------|-------------------------|

Guitar 1 
  1  ^  2  ^  3  ^  4  ^    1  ^  2  ^  3  ^  4  ^
|-------------------------|-------------------------|
|-------3-----3--2--0--3--|----2-----0-----2--0-----|
|-------2-----2--2--2--2--|----2-----2-----2--2--2--|
|-0-----0-----0--0--0--0--|----0-----0-----0--0--0--|
|-0-----0-----0--0--0--0--|----0-----0-----0--0--0--|
|-0-----0-----0--0--0--0--|----0-----0-----0--0--0--|
|                                                   |
Guitar 2                                            |
| 1  ^  2  ^  3  ^  4  ^    1  ^  2  ^  3  ^  4  ^  |
|-------------------------|-------------------------|
|-------12----14-12----15-|----14----12----14-12----|
|-14-14----14-------14----|-14----14----14-------14-|
|-------------------------|-------------------------|
|-------------------------|-------------------------|
|-------------------------|-------------------------|


Outro: (distorted)
(3:43-4:01)
Guitar 1 
  1  ^  2  ^  3  ^  4  ^    1  ^  2  ^  3  ^  4  ^
|-------------------------|-------------------------|
|-------3-----3--3--3--3--|----3-----3--3--3--3--3--|
|-------2-----2--2--2--2--|----2-----2--2--2--2--2--|
|-------0-----0--0--0--0--|----0-----0--0--0--0--0--|
|-------0-----0--0--0--0--|----0-----0--0--0--0--0--|
|-------0-----0--0--0--0--|----0-----0--0--0--0--0--|
|                                                   |
Guitar 2                                            |
| 1  ^  2  ^  3  ^  4  ^    1  ^  2  ^  3  ^  4  ^  |
|-------------------------|-------------------------|
|-------------------------|-------------------------|
|-------7-----7--7--7--7--|----7-----7--7--7--7--7--|
|-------7-----7--7--7--7--|----7-----7--7--7--7--7--|
|-------5-----5--5--5--5--|----5-----5--5--5--5--5--|
|-------------------------|-------------------------|

Guitar 1 
  1  ^  2  ^  3  ^  4  ^    1  ^  2  ^  3  ^  4  ^    1  ^  2  ^  3  ^  4  ^
|-------------------------|-------------------------|-0~~~~~~~~~~~~~~~~~~~~~~-|
|-------3-----3--3--3--3--|----3-----3--3--3--3--3--|-0~~~~~~~~~~~~~~~~~~~~~~-|
|-------2-----2--2--2--2--|----2-----2--2--2--2--2--|-2~~~~~~~~~~~~~~~~~~~~~~-|
|-------0-----0--0--0--0--|----0-----0--0--0--0--0--|-2~~~~~~~~~~~~~~~~~~~~~~-|
|-------0-----0--0--0--0--|----0-----0--0--0--0--0--|-0~~~~~~~~~~~~~~~~~~~~~~-|
|-------0-----0--0--0--0--|----0-----0--0--0--0--0--|-------------------------|
|                                                   |                         |
Guitar 2                                            |                         |
| 1  ^  2  ^  3  ^  4  ^    1  ^  2  ^  3  ^  4  ^  | 1  ^  2  ^  3  ^  4  ^  |
|-------------------------|-------------------------|-------------------------|
|-------------------------|-------------------------|-------------------------|
|-------7-----7--7--7--7--|----7-----7--7--7--7--7--|-------------------------|
|-------7-----7--7--7--7--|----7-----7--7--7--7--7--|-7~~~~~~~~~~~~~~~~~~~~~~-|
|-------5-----5--5--5--5--|----5-----5--5--5--5--5--|-7~~~~~~~~~~~~~~~~~~~~~~-|
|-------------------------|-------------------------|-7~~~~~~~~~~~~~~~~~~~~~~-|

That's pretty much it. There's some really-hard-to-hear extra 
guitar work going on in the background in some parts, especially
that last chorus, but I'm not really sure what is actually being
played. Anyway, enjoy!

~Jeyqwop
Добавлено: 12.02.2016
Вам также может быть интересно:
Другие материалы по этой песне:
  • Аккорды и текст

Страница создана 12.02.2016
http://primanota.ru/violent-soho/like-soda-chords.htm
Привет, Гость.
Предлагаем пройти революционный курс по гитаре.
Подарок от PrimaNota.Ru, забирай!