PrimaNota.ru - самый крупный в мире бесплатный архив песенных текстов, аккордов, табулатур и нот


Violent Soho - Liars - таба, видео

Регистрация Запомнить меня
Войти через:  Facebook Google Twitter Vk Yandex Mail.ru

Violent Soho - Liars - таба, видео

Печатать
Просмотров: 35
Уроки эстрадного вокала в Санкт-Петербурге
[Intro]

e|---------------------------------------------------------------------------|
B|---------------------------------------------------------------------------|   
G|-18-16-14-18-16-14-18-16-14-18-16-14-18-16-14-18-16-14-18-16-14-18-16-14---|   
D|---------------------------------------------------------------------------|   
A|---------------------------------------------------------------------------|   
D|---------------------------------------------------------------------------|   
                                                                                 
Superimposed with                                                              x3 

e|---------------------------------------------------------------------------|
B|---------------------------------------------------------------------------|
G|---------------------------------------------------------------------------|
D|-16/19-16/19-16/19-16/19-16/19-16/19-16/19-16/19-16/19-16/19-16/19-16/19---|
A|---------------------------------------------------------------------------|
D|---------------------------------------------------------------------------|


[Verse]

e|---------------------------------------------------------------------------|
B|---------------------------------------------------------------------------|
G|---------------------------------------------------------------------------| 
D|-12-12-12-9-9-9-9-9-12-12-12-9-9-9-9-9-12-12-12-9-9-9-9-9-4-4-4-5-5-5-5-5--| x2
A|-12-12-12-9-9-9-9-9-12-12-12-9-9-9-9-9-12-12-12-9-9-9-9-9-4-4-4-5-5-5-5-5--|
D|-12-12-12-9-9-9-9-9-12-12-12-9-9-9-9-9-12-12-12-9-9-9-9-9-4-4-4-5-5-5-5-5--|

PM............................................................................
e|---------------------------------------------------------------------------|
B|---------------------------------------------------------------------------|
G|---------------------------------------------------------------------------|
D|-12-12-12-9-9-9-9-9-12-12-12-9-9-9-9-9-12-12-12-9-9-9-9-9-4-4-4-5-5-5-5-5--| x3
A|-12-12-12-9-9-9-9-9-12-12-12-9-9-9-9-9-12-12-12-9-9-9-9-9-4-4-4-5-5-5-5-5--|
D|-12-12-12-9-9-9-9-9-12-12-12-9-9-9-9-9-12-12-12-9-9-9-9-9-4-4-4-5-5-5-5-5--|


[Chorus]

e|---------------------------------------------------------------------------|
B|---------------------------------------------------------------------------|
G|---------------------------------------------------------------------------|
D|-16-16-16-14-16-16-16-14-16-16-16-14-16-16-16-14-16-16-16------------------| x4
A|-16-16-16-14-16-16-16-14-16-16-16-14-16-16-16-14-16-16-16------------------|
D|-16-16-16-14-16-16-16-14-16-16-16-14-16-16-16-14-16-16-16----------------|


[Verse]

e|---------------------------------------------------------------------------|
B|---------------------------------------------------------------------------|
G|---------------------------------------------------------------------------| 
D|-12-12-12-9-9-9-9-9-12-12-12-9-9-9-9-9-12-12-12-9-9-9-9-9-4-4-4-5-5-5-5-5--| x2
A|-12-12-12-9-9-9-9-9-12-12-12-9-9-9-9-9-12-12-12-9-9-9-9-9-4-4-4-5-5-5-5-5--|
D|-12-12-12-9-9-9-9-9-12-12-12-9-9-9-9-9-12-12-12-9-9-9-9-9-4-4-4-5-5-5-5-5--|

PM............................................................................
e|---------------------------------------------------------------------------|
B|---------------------------------------------------------------------------|
G|---------------------------------------------------------------------------|
D|-12-12-12-9-9-9-9-9-12-12-12-9-9-9-9-9-12-12-12-9-9-9-9-9-4-4-4-5-5-5-5-5--| x3
A|-12-12-12-9-9-9-9-9-12-12-12-9-9-9-9-9-12-12-12-9-9-9-9-9-4-4-4-5-5-5-5-5--|
D|-12-12-12-9-9-9-9-9-12-12-12-9-9-9-9-9-12-12-12-9-9-9-9-9-4-4-4-5-5-5-5-5--|

During This Verse, this is played underneath right before the Chorus
e|---------------------------------------------------------------------------|
B|---------------------------------------------------------------------------|
G|---------------------------------------------------------------------------|
D|---------------------------------------------------------------------------| x1
A|---9--9-----------------------------------------9--9----4-5----------------|
D|-12-12----------------------------------------12-12----5-5-----------------|


[Chorus]

e|---------------------------------------------------------------------------|
B|---------------------------------------------------------------------------|
G|---------------------------------------------------------------------------|
D|-16-16-16-14-16-16-16-14-16-16-16-14-16-16-16-14-16-16-16------------------| x4
A|-16-16-16-14-16-16-16-14-16-16-16-14-16-16-16-14-16-16-16------------------|
D|-16-16-16-14-16-16-16-14-16-16-16-14-16-16-16-14-16-16-16------------------|


[Breakdown]

Part 1

PM............................................................................
e|---------------------------------------------------------------------------|
B|---------------------------------------------------------------------------|
G|---------------------------------------------------------------------------| 
D|-9-9-9-9-9-9-9-9-9-9-9-9-9-9-9-9-9-9-9-9-9-9-9-9-9-9-9-9-9-9-9-9-9-9-9-9-9-| x6
A|-9-9-9-9-9-9-9-9-9-9-9-9-9-9-9-9-9-9-9-9-9-9-9-9-9-9-9-9-9-9-9-9-9-9-9-9-9-|
D|-9-9-9-9-9-9-9-9-9-9-9-9-9-9-9-9-9-9-9-9-9-9-9-9-9-9-9-9-9-9-9-9-9-9-9-9-9-|

e|---------------------------------------------------------------------------|
B|---------------------------------------------------------------------------|
G|-18-16-14-18-16-14-18-16-14-18-16-14-18-16-14-18-16-14-18-16-14-18-16-14---|
D|---------------------------------------------------------------------------|
A|---------------------------------------------------------------------------|
D|---------------------------------------------------------------------------|

Superimposed with                                                              x6
  
e|---------------------------------------------------------------------------|
B|---------------------------------------------------------------------------|
G|---------------------------------------------------------------------------|
D|-16/19-16/19-16/19-16/19-16/19-16/19-16/19-16/19-16/19-16/19-16/19-16/19---|
A|---------------------------------------------------------------------------|
D|---------------------------------------------------------------------------|

Part 2

e|---------------------------------------------------------------------------|
B|---------------------------------------------------------------------------|
G|-18-16-14-18-16-14-18-16-14-18-16-14-18-16-14-18-16-14-18-16-14-18-16-14---|
D|---------------------------------------------------------------------------|
A|---------------------------------------------------------------------------|
D|---------------------------------------------------------------------------|

Superimposed with                                                              x4

e|---------------------------------------------------------------------------|
B|---------------------------------------------------------------------------|
G|---------------------------------------------------------------------------|
D|-16/19-16/19-16/19-16/19-16/19-16/19-16/19-16/19-16/19-16/19-16/19-16/19---|
A|---------------------------------------------------------------------------|
D|---------------------------------------------------------------------------|

e|---------------------------------------------------------------------------|
B|-7-7-7-7-7-7-7-7-7-7-7-7-7-7-7-7-7-7-7-7-7-7b-7b-7b-7b-7b-7b-7b-7-7-7-7-7--|
G|---------------------------------------------------------------------------| x4
D|---------------------------------------------------------------------------|
A|---------------------------------------------------------------------------|
D|---------------------------------------------------------------------------|

e|-9-9-9-9-9-9-9-9-9-9-9-9-9-9-9-9-9-9-2-2-2-2-2-2-2-3-3-3-3-3-3-3-3-3-3-3-3-|
B|---------------------------------------------------------------------------|
G|---------------------------------------------------------------------------| x4
D|---------------------------------------------------------------------------|
A|---------------------------------------------------------------------------|
D|---------------------------------------------------------------------------|


[Outro]

e|---------------------------------------------------------------------------|
B|---------------------------------------------------------------------------|
G|---------------------------------------------------------------------------| x8
D|-16-16-16-14-16-16-16-14-16-16-16-14-16-16-16-14-16-16-16------------------| 
A|-16-16-16-14-16-16-16-14-16-16-16-14-16-16-16-14-16-16-16------------------|
D|-16-16-16-14-16-16-16-14-16-16-16-14-16-16-16-14-16-16-16------------------|

This is superimposed with this 

e|-9-9-9-9-9-9-9-9-9-9-9-9-9-9-9-9-9-9-9-9b-9b-9b-9b-9b-9b-9b-9-9-9-9-9-9-9-9|
B|---------------------------------------------------------------------------|
G|---------------------------------------------------------------------------| x4 
D|---------------------------------------------------------------------------|
A|---------------------------------------------------------------------------|
D|---------------------------------------------------------------------------|

Then This

e|---------------------------------------------------------------------------|
B|---------------------------------------------------------------------------|
G|-18-16-14-18-16-14-18-16-14-18-16-14-18-16-14-18-16-14-18-16-14-18-16-14---|
D|---------------------------------------------------------------------------|
A|---------------------------------------------------------------------------|
D|---------------------------------------------------------------------------|
                                                                                x4
e|---------------------------------------------------------------------------|
B|---------------------------------------------------------------------------|
G|---------------------------------------------------------------------------|
D|-16/19-16/19-16/19-16/19-16/19-16/19-16/19-16/19-16/19-16/19-16/19-16/19---|
A|---------------------------------------------------------------------------|
D|---------------------------------------------------------------------------|



************************************

| b  Bend
| /  Slide up

************************************
Добавлено: 17.10.2017
Другие материалы по этой песне:
  • Аккорды и текст

Страница создана 17.10.2017
http://primanota.ru/violent-soho/liars-chords.htm
Привет, Гость.
Предлагаем пройти революционный курс по гитаре.
Подарок от PrimaNota.Ru, забирай!