PrimaNota.ru - самый крупный в мире бесплатный архив песенных текстов, аккордов, табулатур и нот


Violent Soho - How To Taste - таба, видео

Регистрация Запомнить меня
Войти через:  Facebook Google Twitter Vk Yandex Mail.ru

Violent Soho - How To Taste - таба, видео

Печатать
Просмотров: 36
Уроки эстрадного вокала в Санкт-Петербурге
Violent Soho - How to Taste
 featured the new album, WACO

Intro Riff:

e|---------------------------------------------------------------------------|
B|----------3---3----------3----------------3---3---------3------------------|
G|------2/4---4--------2/4---4-0--------2/4---4-------2/4---4----------------|
D|--0-5------------0-5--------------0-5-----------0-5------------------------|
A|---------------------------------------------------------------------------|
D|---------------------------------------------------------------------------|

e|---------------------------------------------------------------------------|
B|---8-----8-------7-----7-----7-------8-----8-----7-----7-------------------|
G|-----7-----7-------7-----7-----7---7---7-----7-----7-----7-----------------|
D|-------5-----5-------5-----5-----5-------5-----5-----5-----5---------------|
A|---------------------------------------------------------------------------|
D|---------------------------------------------------------------------------|

Chorus Riff: 

e|--------------------------------------------------------------------------------------|
B|--------------------------------------------------------------------------------------|
G|--------------------------------------------------------------------------------------|
D|---5-5---5-5---5-5---5-5-5-5-5-5-5-9---------2-2---2-2---10---10-10-10-10-10-10-10*---|
A|---5-5---5-5---5-5---5-5-5-5-5-5-5-9-(x3)----2-2---2-2---10---10-10-10-10-10-10-10----|
D|---5-5---5-5---5-5---5-5-5-5-5-5-5-9---------2-2---2-2---10---10-10-10-10-10-10-10----|
          **When "Tell me how to taste" repeats, play some 5's after the 10's :)

Chorus Lead Riff:

e|---------------------------------------------------------------------------|
B|----8---8---8---8---7---7---7---7------------------------------------------|
G|------7---7---7---7---7---7---7---7----------------------------------------|
D|---------------------------------------------------------------------------|
A|---------------------------------------------------------------------------|
D|---------------------------------------------------------------------------|

Verse Riff:

e|----------------------------------------------------------------------------------|
B|----------------------------------------------------------------------------------|
G|----------------------------------------------------------------------------------|
D|---5-5-5-5-5-5-5-5-5-5-5-5-5-5-5-5-9-9-9-9-9-9-9-9-10-10-10-10-10-10-10-10--------|
A|---5-5-5-5-5-5-5-5-5-5-5-5-5-5-5-5-9-9-9-9-9-9-9-9-10-10-10-10-10-10-10-10--------|
D|---5-5-5-5-5-5-5-5-5-5-5-5-5-5-5-5-9-9-9-9-9-9-9-9-10-10-10-10-10-10-10-10--------|
           **all palm muted


Breakdown Riff:

e|---------------------------------------------------------------------------|
B|---------------------------------------------------------------------------|
G|---------------------------------------------------------------------------|
D|---------------------------------------------------------------------------|
A|---------------------------------------------------------------------------|
D|---2-2-2-4-4-4-5-5-5-4-4-4-4-4-4-4-9-9-9-5-5-5-10-10-10-4-4-4--------------|
           **repeated 6 times again as power chords


I wanna thank rev. ruth for giving me the strength and love to allow me to piece together this tablature,
you better be sinking piss when you're playing this

************************************

| x   Dead note
| g   Grace note
| (n) Ghost note
| h   Hammer-on
| p   Pull-off
| r   Release
| >   Accented note
| t   Tapping
| b   Bend
| br  Bend release
| pb  Pre-bend
| pbr Pre-bend release
| /   Slide up
| \   Slide down
| ~   Vibrato
| s   Slap
| P   Pop
| PM  Palm mute
| TR  Trill
| N   Tremolo

************************************
Добавлено: 17.10.2017
Другие материалы по этой песне:
  • Аккорды и текст

Страница создана 17.10.2017
http://primanota.ru/violent-soho/how-to-taste-chords.htm
Привет, Гость.
Предлагаем пройти революционный курс по гитаре.
Подарок от PrimaNota.Ru, забирай!