PrimaNota.ru - самый крупный в мире бесплатный архив песенных текстов, аккордов, табулатур и нот


Violent Soho - Home Haircuts - таба, видео

Регистрация Запомнить меня
Войти через:  Facebook Google Twitter Vk Yandex Mail.ru

Violent Soho - Home Haircuts - таба, видео

Печатать
Просмотров: 31
Уроки эстрадного вокала в Санкт-Петербурге
[Intro]

e|-----10--10--10--10--10--10--10--10--14--14--14--15--15--15--15--15--------|
B|-------11--11--11--11--11--11--11--11--11--11--11--11--11--11--11----------|
G|---------------------------------------------------------------------------|
D|---------------------------------------------------------------------------|
A|---------------------------------------------------------------------------|
D|---------------------------------------------------------------------------|x2

[Verses]

e|---------------------------------------------------------------------------|
B|---------------------------------------------------------------------------|
G|-----------7-8-7-----------7-8-7-------------------0-----------------------|
D|-------8---------------8---------------7---0-----------0-------------------|
A|-----------------------------------8-----------6-----------6---(0)---------|
D|----8---------------8------------------------------------------------------| Repeat 

[Chorus]

(Strumming)
e|---------------------------------------------------------------------------|
B|---------------------------------------------------------------------------|
G|---------------------------------------------------------------------------|
D|--8------------------------------0-------------------1---------------------|
A|--8------------------------------0-------------------1---------------------|
D|--8------------------------------0-------------------1---------------------| x4

(Another guitar playing...)
e|--10-----------------------------14------------------15--------------------|
B|--11-----------------------------11------------------11--------------------|
G|--10-----------------------------10------------------10--------------------|
D|---------------------------------------------------------------------------|
A|---------------------------------------------------------------------------|
D|---------------------------------------------------------------------------| x4

[Verses]

e|---------------------------------------------------------------------------|
B|---------------------------------------------------------------------------|
G|-----------7-8-7-----------7-8-7-------------------0-----------------------|
D|-------8---------------8---------------7---0-----------0-------------------|
A|-----------------------------------8-----------6-----------6---(0)---------|
D|----8---------------8------------------------------------------------------| Repeat 

[Chorus]

(Strumming)
e|---------------------------------------------------------------------------|
B|---------------------------------------------------------------------------|
G|---------------------------------------------------------------------------|
D|--8------------------------------0-------------------1---------------------|
A|--8------------------------------0-------------------1---------------------|
D|--8------------------------------0-------------------1---------------------| x4

(Another guitar playing...)
e|--10-----------------------------14------------------15--------------------|
B|--11-----------------------------11------------------11--------------------|
G|--10-----------------------------10------------------10--------------------|
D|---------------------------------------------------------------------------|
A|---------------------------------------------------------------------------|
D|---------------------------------------------------------------------------| x4

[Bridge/ Ending]

e|-------------------------------------------------------------|
B|-------------------------------------------------------------|
G|--------------8---------8----------------8---------8---------|
D|--------10-------10----------------10-------10---------------|
A|-----10-------------------------10---------------------------|
D|--10-------10-------10-------10-------10-------10------------| x2

e|-------------------------------------------------------------|
B|-------------------------------------------------------------|
G|--------------12--------12--------------12--------12---------|
D|--------13-------13----------------13-------13---------------|
A|-----13-------------------------13---------------------------|
D|--13-------13-------13-------13-------13-------13------------| x2

e|-------------------------------------------------------------|
B|-------------------------------------------------------------|
G|--------------3--------3----------------3---------3----------|
D|--------5--------5----------------5--------5-----------------|
A|-----5-------------------------5-----------------------------|
D|--5--------5-------5--------5--------5--------5--------------| x2

e|-------------------------------------------------------------|
B|-------------------------------------------------------------|
G|--------------2--------2----------------2---------2----------|
D|--------0--------0----------------0--------0-----------------|
A|-----0-------------------------0-----------------------------|
D|--0--------0-------0--------0--------0--------0--------------| x2

e|-------------------------------------------------------------|
B|-------------------------------------------------------------|
G|--------------8---------8----------------8---------8---------|
D|--------10-------10----------------10-------10---------------|
A|-----10-------------------------10---------------------------|
D|--10-------10-------10-------10-------10-------10------------| x2

e|-------------------------------------------------------------|
B|-------------------------------------------------------------|
G|--------------12--------12--------------12--------12---------|
D|--------13-------13----------------13-------13---------------|
A|-----13-------------------------13---------------------------|
D|--13-------13-------13-------13-------13-------13------------| x2

e|-------------------------------------------------------------|
B|-------------------------------------------------------------|
G|--------------3--------3----------------3---------3----------|
D|--------5--------5----------------5--------5-----------------|
A|-----5-------------------------5-----------------------------|
D|--5--------5-------5--------5--------5--------5--------------| x2

e|-------------------------------------------------------------|
B|-------------------------------------------------------------|
G|--------------2--------2----------------2---------2----------|
D|--------0--------0-----------------0--------0----------------|
A|-----0--------------------------0----------------------------|
D|--0--------0-------0--------0--------0--------0--------------| x2

e|-------------------------------------------------------------|
B|-------------------------------------------------------------|
G|--------------0--------0----------------0---------0----------|
D|--------1--------1-----------------1--------1----------------|
A|-----1--------------------------1----------------------------|
D|--1--------1-------1--------1--------1--------1--------------| x2

e|-------------------------------------------------------------|
B|-------------------------------------------------------------|
G|--------------3--------3----------------3---------3----------|
D|--------5--------5----------------5---------5----------------|
A|-----5-------------------------5-----------------------------|
D|--5--------5-------5--------5--------5--------5--------------| x2

e|-------------------------------------------------------------|
B|-------------------------------------------------------------|
G|--------------7--------7----------------7---------7----------|
D|--------8--------8----------------8---------8----------------|
A|-----8-------------------------8-----------------------------|
D|--8--------8-------8--------8--------8--------8--------------| x2

e|-------------------------------------------------------------|
B|-------------------------------------------------------------|
G|--------------11-------11--------------11--------11----------|
D|--------12-------12----------------12-------12---------------|
A|-----12-------------------------12---------------------------|
D|--12-------12-------12-------12-------12-------12------------| x2

While the last 8 bars are playing, another guitar is playing this

(Strumming)
e|---------------|---------------|---------------|-------------|
B|---------------|---------------|---------------|-------------|
G|---------------|---------------|---------------|-------------|
D|--1------------|--1------------|--5------------|--5----------|
A|--1------------|--1------------|--5------------|--5----------|
D|--1------------|--1------------|--5------------|--5----------|


e|---------------|---------------|---------------|-------------|
B|---------------|---------------|---------------|-------------|
G|---------------|---------------|---------------|-------------|
D|--8------------|--8------------|--12-----------|--12---------|
A|--8------------|--8------------|--12-----------|--12---------|
D|--8------------|--8------------|--12-----------|--12---------|




Добавлено: 17.10.2017
Другие материалы по этой песне:
  • Аккорды и текст

Страница создана 17.10.2017
http://primanota.ru/violent-soho/home-haircuts-chords.htm
Привет, Гость.
Предлагаем пройти революционный курс по гитаре.
Подарок от PrimaNota.Ru, забирай!