PrimaNota.ru - самый крупный в мире бесплатный архив песенных текстов, аккордов, табулатур и нот


Violent Soho - Hollywood - таба, видео

Регистрация Запомнить меня
Войти через:  Facebook Google Twitter Vk Yandex Mail.ru

Violent Soho - Hollywood - таба, видео

Печатать
Просмотров: 44
Уроки эстрадного вокала в Санкт-Петербурге
[Intro]

e|---------------------------------------------------------------------------|
B|---------------------------------------------------------------------------|
G|---------------------------------------------------------------------------| x1
D|-5-7-----------------------------------------------------------------------|
A|-5-7-----------------------------------------------------------------------|
D|-5-7-----------------------------------------------------------------------|


[Verse]

e|---------------------------------------------------------------------------|
B|---------------------------------------------------------------------------|
G|---------------------------------------------------------------------------| x5
D|-x-x-x-x-x-x-x-x-x-x-x-x-5-7-----------------------------------------------|
A|-x-x-x-x-x-x-x-x-x-x-x-x-5-7-----------------------------------------------|
D|-x-x-x-x-x-x-x-x-x-x-x-x-5-7-----------------------------------------------|


[Pre-Chorus]

e|---------------------------------------------------------------------------|
B|---------------------------------------------------------------------------|
G|---------------------------------------------------------------------------| x5
D|-7-7-7-7-7-7-7-7-7-7-7-7-7-7-5---------------------------------------------|
A|-7-7-7-7-7-7-7-7-7-7-7-7-7-7-5---------------------------------------------|
D|-7-7-7-7-7-7-7-7-7-7-7-7-7-7-5---------------------------------------------|


[Chorus]

e|---------------------------------------------------------------------------|
B|---------------------------------------------------------------------------|
G|-14--14--14--14--17--17--17--17--12--12--12-12-12--8--8--8--8--8--8--8-----| x5 
D|-14--14--14--14--17--17--17--17--12--12--12-12-12--8--8--8--8--8--8--8-----|
A|-12--12--12--12--15--15--15--15--10--10--10-10-10--10-10-10-10-10-10-10----|
D|---------------------------------------------------------------------------|


[Verse]

e|---------------------------------------------------------------------------|
B|---------------------------------------------------------------------------|
G|---------------------------------------------------------------------------| x5
D|-x-x-x-x-x-x-x-x-x-x-x-x-5-7-----------------------------------------------|
A|-x-x-x-x-x-x-x-x-x-x-x-x-5-7-----------------------------------------------|
D|-x-x-x-x-x-x-x-x-x-x-x-x-5-7-----------------------------------------------|


[Pre-Chorus]

e|---------------------------------------------------------------------------|
B|---------------------------------------------------------------------------|
G|---------------------------------------------------------------------------| x5
D|-7-7-7-7-7-7-7-7-7-7-7-7-7-7-5---------------------------------------------|
A|-7-7-7-7-7-7-7-7-7-7-7-7-7-7-5---------------------------------------------|
D|-7-7-7-7-7-7-7-7-7-7-7-7-7-7-5---------------------------------------------|


[Chorus]

e|---------------------------------------------------------------------------|
B|---------------------------------------------------------------------------|
G|-14--14--14--14--17--17--17--17--12--12--12-12-12--8--8--8--8--8--8--8-----| x5
D|-14--14--14--14--17--17--17--17--12--12--12-12-12--8--8--8--8--8--8--8-----|
A|-12--12--12--12--15--15--15--15--10--10--10-10-10--10-10-10-10-10-10-10----|
D|---------------------------------------------------------------------------|


[Outro]

e|---------------------------------------------------------------------------|
B|---------------------------------------------------------------------------|
G|---------------------------------------------------------------------------| x6
D|-x-x-x-x-x-x-x-x-x-x-x-x-5-7-----------------------------------------------|
A|-x-x-x-x-x-x-x-x-x-x-x-x-5-7-----------------------------------------------|
D|-x-x-x-x-x-x-x-x-x-x-x-x-5-7-----------------------------------------------|

Into this

e|---------------------------------------------------------------------------|
B|---------------------------------------------------------------------------|
G|---------------------------------------------------------------------------| x6
D|-7-7-7-7-7-7-7-7-7-7-7-7-7-7-5---------------------------------------------|
A|-7-7-7-7-7-7-7-7-7-7-7-7-7-7-5---------------------------------------------|
D|-7-7-7-7-7-7-7-7-7-7-7-7-7-7-5---------------------------------------------|

Then that into this

e|---------------------------------------------------------------------------|
B|---------------------------------------------------------------------------|
G|-17~~~~~~~~~~~~~14~~~~~~~~~~~~~~~12~~~~~~~~~~~~~~9~~~~~~~~~~~~~~~~---------| x10
D|---------------------------------------------------------------------------|
A|---------------------------------------------------------------------------|
D|---------------------------------------------------------------------------|

This is played overtop 
e|---------------------------------------------------------------------------|
B|---------------------------------------------------------------------------|
G|--------------------------------19~~~~~~~~~~~~~~~21~~~~~~~~~~~~~~~---------|
D|---------------------------------------------------------------------------|
A|---------------------------------------------------------------------------|
D|---------------------------------------------------------------------------|

e|---------------------------------------------------------------------------|
B|---------------------------------------------------------------------------|
G|---------------------------------------------------------------------------|
D|-7-7-7-7-7-7-7-10-10-10-10-10-10-10-5-5-5-5-5-5-5-3-3-3-3-3-3-3------------|x10
A|-7-7-7-7-7-7-7-10-10-10-10-10-10-10-5-5-5-5-5-5-5-3-3-3-3-3-3-3------------|
D|-7-7-7-7-7-7-7-10-10-10-10-10-10-10-5-5-5-5-5-5-5-3-3-3-3-3-3-3------------|

then lastly this

e|---------------------------------------------------------------------------|
B|---------------------------------------------------------------------------|
G|-17~~~~~~~~~~~~~14~~~~~~~~~~~~~~~12~~~~~~~~~~~~~~9~~~~~~~~~~~~~~~~---------| x2
D|---------------------------------------------------------------------------|
A|---------------------------------------------------------------------------|
D|---------------------------------------------------------------------------|

This is played overtop 
e|---------------------------------------------------------------------------|
B|---------------------------------------------------------------------------|
G|--------------------------------19~~~~~~~~~~~~~~~21~~~~~~~~~~~~~~~---------|
D|---------------------------------------------------------------------------|
A|---------------------------------------------------------------------------|
D|---------------------------------------------------------------------------|

e|---------------------------------------------------------------------------|
B|---------------------------------------------------------------------------|
G|---------------------------------------------------------------------------| x2
D|-5-7-7-5-7-----------------------------------------------------------------|
A|-5-7-7-5-7-----------------------------------------------------------------|
D|-5-7-7-5-7-----------------------------------------------------------------|



************************************

| x  Dead note
| ~  Vibrato

************************************
Добавлено: 17.10.2017
Другие материалы по этой песне:
  • Аккорды и текст

Страница создана 17.10.2017
http://primanota.ru/violent-soho/hollywood-chords.htm
Привет, Гость.
Предлагаем пройти революционный курс по гитаре.
Подарок от PrimaNota.Ru, забирай!