PrimaNota.ru - самый крупный в мире бесплатный архив песенных текстов, аккордов, табулатур и нот


Violent Soho - Evergreen - таба, видео

Регистрация Запомнить меня
Войти через:  Facebook Google Twitter Vk Yandex Mail.ru

Violent Soho - Evergreen - таба, видео

Печатать
Просмотров: 37
Уроки эстрадного вокала в Санкт-Петербурге
[Intro Part 1]

e|---|    
B|---|    
G|-11|
D|-11|    
A|-9-|    
D|-0-|    


[Intro Part 2]

e|---------------------------------------------------------------------------|
B|---------------------------------------------------------------------------|
G|-11-11-11-11-11-11-11-11-11-11-11------------------------------------------| x3
D|-11-11-11-11-11-11-11-11-11-11-11-9-9-9-9-9-9-9-9-9-9-9-9-9----------------|
A|-9--9--9--9--9--9--9--9--9--9--9--9-9-9-9-9-9-9-9-9-9-9-9-9----------------|
D|-0--0--0--0--0--0--0--0--0--0--0--9-9-9-9-9-9-9-9-9-9-9-9-9----------------|


[Verse]
PM............................................................................
e|---------------------------------------------------------------------------|
B|---------------------------------------------------------------------------|
G|-11-11-11-11-11-11-11-11-11-11-11------------------------------------------| x4
D|-11-11-11-11-11-11-11-11-11-11-11-9-9-9-9-9-9-9-9-9-9-9-9-9----------------|
A|-9--9--9--9--9--9--9--9--9--9--9--9-9-9-9-9-9-9-9-9-9-9-9-9----------------|
D|-0--0--0--0--0--0--0--0--0--0--0--9-9-9-9-9-9-9-9-9-9-9-9-9----------------|

e|---------------------------------------------------------------------------|
B|-2-------------------------------------------------------------------------| 
G|---------------------------------------------------------------------------| x4
D|---------------------------------------------------------------------------|
A|---------------------------------------------------------------------------|
D|---------------------------------------------------------------------------| 
that note is played at the beginning of every bar

this comes in after you've played the palm muted part twice
e|------------------------------------------------------|   
B|------------------------------------------------------|    
G|---2---2---2---2---2---2---2---2---2---2---2---2---2--| x2(over verse)  
D|--4-4-4-4-4-4-4-4-4-4-4-4-4-4-4-4-4-4-4-4-4-4-4-4-4-4-|                  
A|-5---5---5---5---5---5---5---2---2---2---2---2---2----|   
D|------------------------------------------------------| 


[Chorus]

e|-------------------------------------------------------------------|
B|-------------------------------------------------2b-2b-2b-2b-2b-2b-|
G|-------------------------------------------------------------------| x4 
D|-9-9-4-4-4-4-0-0-0-0-0-0-0-0-0-0--9-9-4-4-4-4-0--------------------|
A|-9-9-4-4-4-4-0-0-0-0-0-0-0-0-0-0--9-9-4-4-4-4-0--------------------|
D|-9-9-4-4-4-4-0-0-0-0-0-0-0-0-0-0--9-9-4-4-4-4-0--------------------|
               \Alternate strokes/

[Verse]
PM............................................................................
e|---------------------------------------------------------------------------|
B|---------------------------------------------------------------------------|
G|-11-11-11-11-11-11-11-11-11-11-11------------------------------------------| x4
D|-11-11-11-11-11-11-11-11-11-11-11-9-9-9-9-9-9-9-9-9-9-9-9-9----------------|
A|-9--9--9--9--9--9--9--9--9--9--9--9-9-9-9-9-9-9-9-9-9-9-9-9----------------|
D|-0--0--0--0--0--0--0--0--0--0--0--9-9-9-9-9-9-9-9-9-9-9-9-9----------------|

e|---------------------------------------------------------------------------|
B|-2-------------------------------------------------------------------------| 
G|---------------------------------------------------------------------------| x4
D|---------------------------------------------------------------------------|
A|---------------------------------------------------------------------------|
D|---------------------------------------------------------------------------|
that note is played at the beginning of every bar

this comes in after you've played the palm muted part twice
e|------------------------------------------------------|   
B|------------------------------------------------------|    
G|---2---2---2---2---2---2---2---2---2---2---2---2---2--| x2(over verse)  
D|--4-4-4-4-4-4-4-4-4-4-4-4-4-4-4-4-4-4-4-4-4-4-4-4-4-4-|                  
A|-5---5---5---5---5---5---5---2---2---2---2---2---2----|   
D|------------------------------------------------------| 

      
[Chorus]

e|-------------------------------------------------------------------|
B|-------------------------------------------------2b-2b-2b-2b-2b-2b-|
G|-------------------------------------------------------------------| x4 
D|-9-9-4-4-4-4-0-0-0-0-0-0-0-0-0-0--9-9-4-4-4-4-0--------------------|
A|-9-9-4-4-4-4-0-0-0-0-0-0-0-0-0-0--9-9-4-4-4-4-0--------------------|
D|-9-9-4-4-4-4-0-0-0-0-0-0-0-0-0-0--9-9-4-4-4-4-0--------------------|
               \Alternate strokes/

[Solo]

e|---------------------------------------------------------------------------|
B|---------------------------------------------------------------------------| 
G|-18~~~~~~~~~14/18\11~~~~~~11/18-19-18--18-19-18--18-19-18-18-19-18--18-19--| 
D|-------------------------------------19--------19-----------------19-------|
A|-16~~~~~~~~~12/16\9~~~~~~--------------------------------------------------|
D|---------------------------------------------------------------------------|

e|---------------------------------------------------------------------------|
B|---------------------------------------------------------------------------| 
G|-18--18-19-18\6-6-6-7-7-7-9-9-9-11-11-11-12-11/6-6-6-7-7-7-9-9-9-11-11-11--| 
D|---19----------------------------------------------------------------------|
A|---------------------------------------------------------------------------|
D|---------------------------------------------------------------------------|

e|---------------------------------------------------------------------------|
B|-------14-14-----14-14-----------14----------------------------------------| 
G|-12-11------14-14-----14-14-14-14------------------------------------------| 
D|---------------------------------------------------------------------------|
A|---------------------------------------------------------------------------|
D|---------------------------------------------------------------------------|

e|---------------------------------------------------------------------------|
B|---------------------------------------------------------------------------| 
G|---------------------------------------------------------------------------| 
D|-12-12-12-12-12-12-12-12-12-12-12-4-4-4-4-4-4-4-4-4-4----------------------|
A|-12-12-12-12-12-12-12-12-12-12-12-4-4-4-4-4-4-4-4-4-4----------------------|
D|-12-12-12-12-12-12-12-12-12-12-12-4-4-4-4-4-4-4-4-4-4----------------------|

e|---------------------------------------------------------------------------|
B|---------------------------------------------------------------------------|
G|---------------------------------------------------------------------------|
D|-12-12-12-12-12-12-12-12-12-14-14-14-14-4-4-4-4-4-4-4-4-4-4-4-4------------|
A|-12-12-12-12-12-12-12-12-12-14-14-14-14-4-4-4-4-4-4-4-4-4-4-4-4------------|
D|-12-12-12-12-12-12-12-12-12-14-14-14-14-4-4-4-4-4-4-4-4-4-4-4-4------------|

e|---------------------------------------------------------------------------|
B|---------------------------------------------------------------------------| 
G|---------------------------------------------------------------------------| 
D|-9-9-9-9-9-9-9-9-9-9-9-9-9-9-4-4-4-4-4-4-4-4-4-4-4-------------------------|
A|-9-9-9-9-9-9-9-9-9-9-9-9-9-9-4-4-4-4-4-4-4-4-4-4-4-------------------------|
D|-9-9-9-9-9-9-9-9-9-9-9-9-9-9-4-4-4-4-4-4-4-4-4-4-4-------------------------|


[Picked Part after the Solo]

e|---||----------------------------------------------------------------------|
B|-0-||------0-----0---0-----------------------------------------------------|
G|-2-||-----2--2-2---2---2-2-------------------------------------------------| x4
D|-4-||-4-4---4---4-4-4-4-4-5-4-4--------------------------------------------|
A|-5-||--5-5-----------------5-5---------------------------------------------|
D|---||----------------------------------------------------------------------|


[Outro] 
part 1 played over 2 bars of the Chorus, Part 2 played over 4 of the Intro and then 1 for the Chorus

Part 1

e|---------------------------------------------------------------------------|
B|---------------------------------------------------------------------------|
G|-19-19-19-19-19-19b-19b-19b-19b-19b-19-19-19-17-17-17-17-17----------------| x2
D|---------------------------------------------------------------------------|
A|-17-17-17-17-17-17b-17b-17b-17b-17b-17-17-17-15-15-15-15-15----------------|
D|---------------------------------------------------------------------------|

Part 2

e|---------------------------------------------------------------------------|
B|---------------------------------------------------------------------------|
G|-19-19-19-19-19b-19b-19b-19-19-17-17-17-15-15-15-12-12-12------------------| x5
D|---------------------------------------------------------------------------|
A|-17-17-17-17-17b-17b-17b-17-17-15-15-15-13-13-13-10-10-10------------------|
D|---------------------------------------------------------------------------|

This is played over both parts
e|-9-10-9--------9-10-9------------------------------------------------------|
B|-------10------------10----------------------------------------------------|
G|---------------------------------------------------------------------------| x7
D|---------------------------------------------------------------------------|
A|---------------------------------------------------------------------------|
D|---------------------------------------------------------------------------|

Song Order: 

Intro Part 1
intro Part 2
Verse
Chorus
Verse
Chorus
Solo
Picked Part after Solo
Chorus (Outro played overtop)
Intro Part 2 (Outro played overtop) 
Chorus (Outro played overtop)

************************************

| b  Bend
| /  Slide Up
| \  Slide Down

************************************
Добавлено: 17.10.2017
Другие материалы по этой песне:
  • Аккорды и текст

Страница создана 17.10.2017
http://primanota.ru/violent-soho/evergreen-chords.htm
Привет, Гость.
Предлагаем пройти революционный курс по гитаре.
Подарок от PrimaNota.Ru, забирай!