PrimaNota.ru - самый крупный в мире бесплатный архив песенных текстов, аккордов, табулатур и нот


Violent Soho - Domestic Lala - таба, видео

Регистрация Запомнить меня
Войти через:  Facebook Google Twitter Vk Yandex Mail.ru

Violent Soho - Domestic Lala - таба, видео

Печатать
Просмотров: 84
-------------------------------------------------------------------------------
                        DOMESTIC LALA - Violent Soho
-------------------------------------------------------------------------------
Tabbed by: jamesxboxlive12
E-mail: jamesxboxlive1234@live.com.au

Tuning: Drop D (DADGBe)

I've included the bass part for the chorus to avoid any confusion if the song 
sounds different to the tab. Enjoy!

INTRO (Clean)
 | Guitar 1 
E|---------------------------------------------------------------------------|
B|---------------------------------------------------------------------------|
G|---------------------------------------------------------------------------|
D|--------4-----------------4---------------7-----0-----7-----0--------------|    x2
A|----4h5---5---5-----5---5---5---5---9---9---9-----9-----9-----9------------|
D|--0---------0---0-5---5-------5--/9---9-------9-----9-----9-----9----------|

 | Guitar 1 
E|---------------------------------------------------------------------------|
B|---------------------------------------------------------------------------|
G|---------------------------------------------------------------------------|
D|--------4-----------------4---------------7-----0-----7-----0--------------|   
A|----4h5---5---5-----5---5---5---5---9---9---9-----9-----9-----9------------|
D|--0---------0---0-5---5-------5--/9---9-------9-----9-----9-----9----------| 
 |                                                                                   
 | Guitar 2                                                                        x2
E|---------------------------------------------------------------------------|
B|---------------------------------------------------------------------------|
G|---------------------------------------------------------------------------|
D|---------------------------------------------------------------------------|   
A|--0---------------2-------5------/9----------------------------------------|
D|---------------------------------------------------------------------------|


VERSE 1 (Distortion)
 | Guitar 1 
E|---------------------------------------------------------------------------|
B|---------------------------------------------------------------------------|
G|---------------------------------------------------------------------------|
D|--0-0------9-9------8-8-------5-5-5-5-5-5-5--------------------------------|    x2
A|--0-0------9-9------8-8-------5-5-5-5-5-5-5--------------------------------|
D|--0-0------9-9------8-8-------5-5-5-5-5-5-5--------------------------------|

 | Guitar 1
E|---------------------------------------------------------------------------|
B|---------------------------------------------------------------------------|
G|---------------------------------------------------------------------------|
D|--0-0------9-9------8-8-------5-5-5-5-5-5-5--------------------------------|    
A|--0-0------9-9------8-8-------5-5-5-5-5-5-5--------------------------------|
D|--0-0------9-9------8-8-------5-5-5-5-5-5-5--------------------------------|
 |                                                                                   
 | Guitar 2 (Palm mute)
E|---------------------------------------------------------------------------|
B|---------------------------------------------------------------------------|
G|---------------------------------------------------------------------------|
D|---------------------------------------------------------------------------|   
A|--5-5-5-5-5-5-5-5-5-5-5-5-5-5-5-5-5-5-5-5-5--------------------------------|
D|---------------------------------------------------------------------------|

 | Guitar 1
E|---------------------------------------------------------------------------|
B|---------------------------------------------------------------------------|
G|---------------------------------------------------------------------------|
D|--0-0------9-9------8-8-------5-5-5-5-5-5-5--------------------------------|    
A|--0-0------9-9------8-8-------5-5-5-5-5-5-5--------------------------------|
D|--0-0------9-9------8-8-------5-5-5-5-5-5-5--------------------------------|
 |                                                                                   
 | Guitar 2 
E|---------------------------------------------------------------------------|
B|---------------------------------------------------------------------------|
G|--x-x-x-x-x-x-x-x-x-x-x-x-x-x-x-x-x-x-x-x-x--------------------------------|
D|--x-x-x-x-x-x-x-x-x-x-x-x-x-x-x-x-x-x-x-x-x--------------------------------|   
A|--x-x-x-x-x-x-x-x-x-x-x-x-x-x-x-x-x-x-x-x-x--------------------------------|
D|--x-x-x-x-x-x-x-x-x-x-x-x-x-x-x-x-x-x-x-x-x--------------------------------|


CHORUS x2
 | Guitar 1
E|---------------------------------------------------------------------------|
B|---------------------------------------------------------------------------|
G|---------------------------------------------------------------------------|
D|----0-0-0-0-0-0-0-0-0-0-0-0-0-0-0-9---9-9-9-9-9-9-9-9-9-9-9-9-9-9-9-9------|    
A|----0-0-0-0-0-0-0-0-0-0-0-0-0-0-0-9---9-9-9-9-9-9-9-9-9-9-9-9-9-9-9-9------|
D|----0-0-0-0-0-0-0-0-0-0-0-0-0-0-0-9---9-9-9-9-9-9-9-9-9-9-9-9-9-9-9-9------|
 |                                                                                   
 | Guitar 2
E|---------------------------------------------------------------------------|
B|---------------------------------------------------------------------------|
G|--------------------------------------------7-------9-------11-------------|
D|---------------------------------------------------------------------------|    
A|---------------------------------------------------------------------------|
D|---------------------------------------------------------------------------|
 |
 | Bass 
G|---------------------------------------------------------------------------|
D|---------------------------------------------------------------------------|
A|---------------------------------------------------------------------------|
D|----0-0-0-0-0-0-0-0-5-5-5-5-5-5-5-9---9-9-9-9-9-9-9-9-9-9-9-9-9-9-9-9------|


VERSE 2
 | Guitar 1 
E|---------------------------------------------------------------------------|
B|---------------------------------------------------------------------------|
G|---------------------------------------------------------------------------|
D|--0-0------9-9------8-8-------5-5-5-5-5-5-5--------------------------------|    x2
A|--0-0------9-9------8-8-------5-5-5-5-5-5-5--------------------------------|
D|--0-0------9-9------8-8-------5-5-5-5-5-5-5--------------------------------|

 | Guitar 1 
E|---------------------------------------------------------------------------|
B|---------------------------------------------------------------------------|
G|---------------------------------------------------------------------------|
D|--0-0-0-0-0-0-0-0-9-9-9-9-9-9-9-9-8-8-8-8-8-8-8-8-8-5-5-5-5-5-5-5----------|    x2
A|--0-0-0-0-0-0-0-0-9-9-9-9-9-9-9-9-8-8-8-8-8-8-8-8-8-5-5-5-5-5-5-5----------|
D|--0-0-0-0-0-0-0-0-9-9-9-9-9-9-9-9-8-8-8-8-8-8-8-8-8-5-5-5-5-5-5-5----------|



CHORUS x4


BRIDGE (Both Guitar 1 & 2 Clean)
 | Guitar 1 
E|---------------------------------------------------------------------------|
B|---------------------------------------------------------------------------|
G|---------------------------------------------------------------------------|
D|--------4-----------------4---------------7-----0-----7-----0--------------|    x2
A|----4h5---5---5-----5---5---5---5---9---9---9-----9-----9-----9------------|
D|--0---------0---0-5---5-------5--/9---9-------9-----9-----9-----9----------|

 | Guitar 1 
E|---------------------------------------------------------------------------|
B|---------------------------------------------------------------------------|
G|---------------------------------------------------------------------------|
D|--4-4-4-4-4-4-4-4-4-4-4-4-4-4-4-4-4-4-4-4-4-4-4-4--4--4--4--4--4--4--4--4--|    
A|--4-4-4-4-4-4-4-5-5-5-5-5-5-5-5-5-4-4-4-4-4-4-4-5--5--5--5--5--5--5--5--5--|
D|--0-0-0-0-0-0-0-0-0-0-0-0-0-0-0-0-0-0-0-0-0-0-0-0--0--0--0--0--0--0--0--0--|
 |                                                                                  
 | Guitar 2                                                                       x6  
E|---------------------------------------------------------------------------|
B|---------------------------------------------------------------------------|
G|--x-x-x-x-x-x-x-x-x-x-x-x-x-x-x-x-x-x-x-x-x-x-x-x--x--x--x--x--x--x--x--x--|
D|--x-x-x-x-x-x-x-x-x-x-x-x-x-x-x-x-x-x-x-x-x-x-x-x--x--x--x--x--x--x--x--x--|
A|--4-4-4-4-4-4-4-5-5-5-5-5-5-5-5-5-9-9-9-9-9-9-9-10-10-10-10-10-10-10-10-10-|
D|--x-x-x-x-x-x-x-x-x-x-x-x-x-x-x-x-x-x-x-x-x-x-x-x--x--x--x--x--x--x--x--x--|


OUTRO
 | Guitar 1 and 2
E|---------------------------------------------------------------------------|
B|---------------------------------------------------------------------------|
G|---------------------------------------------------------------------------|
D|--0-0-0-0-0-0-0-0-9-9-9-9-9-9-9-9-8-8-8-8-8-8-8-8-5-5-5-5-5-5-5-5----------|    x2
A|--0-0-0-0-0-0-0-0-9-9-9-9-9-9-9-9-8-8-8-8-8-8-8-8-5-5-5-5-5-5-5-5----------|
D|--0-0-0-0-0-0-0-0-9-9-9-9-9-9-9-9-8-8-8-8-8-8-8-8-5-5-5-5-5-5-5-5----------|

 | Guitar 1 and 2
E|---------------------------------------------------------------------------|
B|---------------------------------------------------------------------------|
G|---------------------------------------------------------------------------|
D|--0-0-0-0-0-0-0-0-9-9-9-9-9-9-9-9-8-8-8-8-8-8-8-8-8-5-5-5-5-5-5-5----------|    x2
A|--0-0-0-0-0-0-0-0-9-9-9-9-9-9-9-9-8-8-8-8-8-8-8-8-8-5-5-5-5-5-5-5----------|
D|--0-0-0-0-0-0-0-0-9-9-9-9-9-9-9-9-8-8-8-8-8-8-8-8-8-5-5-5-5-5-5-5----------|


CHORUS x4

Добавлено: 12.02.2016
Другие материалы по этой песне:
  • Аккорды и текст

Страница создана 12.02.2016
http://primanota.ru/violent-soho/domestic-lala-chords.htm
Привет, Гость.
Предлагаем пройти революционный курс по гитаре.
Подарок от PrimaNota.Ru, забирай!