PrimaNota.ru - самый крупный в мире бесплатный архив песенных текстов, аккордов, табулатур и нот


Violent Femmes - See my Ships - аккорды и текст, видео

Регистрация Запомнить меня
Войти через:  Facebook Google Twitter Vk Yandex Mail.ru

Violent Femmes - See my Ships - аккорды и текст, видео

Печатать
Просмотров: 88
See my Ships
Violent Femmes
"See My Ships"
by Violent Femmes
off of their album 3
transcribed by Matthew Barnes (mrti@yahoo.com)

Intro:

|---------------------|	
|---------------------|	
|--0---0---0-0-0-0-0--|	
|--2---2---2-2-2-2-2--| X 2
|--2---2---2-2-2-2-2--|	
|--3---2---0-0-0-2-0--|	


|---------------------|		
|---------------------|		
|--0---0---0-0-0-0-0--|		
|--2---2---2-2-2-2-2--|  x 1	
|--2---2---2-2-2-2-2--|		
|--3---3---3-3-3-3-3--|		

|---------------------------------|
|---------------------------------|
|--0--------0--------0---0---0----|
|--2--------2--------2---2---2----|  x 1
|--0h2------0h2------0h2-0h2-0h2--|
|--3--------3--------3---3---3----|

*Note:  In verses, use the first part of the intro for
the Em chord,*
*and for the C chord, play the low E string in the
same fashion.    *

Verse: Em - C - Em

Bridge: Em

__________________________________
     
Добавлено: 13.07.2013
Другие материалы по этой песне:
  • Аккорды и текст

Страница создана 24.05.2012
http://primanota.ru/violent-femmes/see-my-ships-chords.htm
Привет, Гость.
Предлагаем пройти революционный курс по гитаре.
Подарок от PrimaNota.Ru, забирай!