PrimaNota.ru - самый крупный в мире бесплатный архив песенных текстов, аккордов, табулатур и нот


Vintage Trouble - Run Outta You - аккорды и текст, таба, видео

Регистрация Запомнить меня
Войти через:  Facebook Google Twitter Vk Yandex Mail.ru

Vintage Trouble - Run Outta You - аккорды и текст, таба, видео

Печатать
Просмотров: 65
Run Outta You
Vintage Trouble
Intro pattern:
  E                              
|---------------------------------------------------------------|
|---------------------------------------------------------------|
|---------------------------------------------------------------|
|--2-----------2-2-------------2--------------------------------|
|--2-------2-4---2---------2-4----------------------------------|
|--0---3-4-------0--0--3-4--------------------------------------|

   E  B  A  Dsus2  G
|-----------0------3-------------------------------------------------|
|--5-----2--3------3-------------------------------------------------|
|--4--4--2--2------0-------------------------------------------------|
|--2--4--2--0------0-------------------------------------------------|
|--2--2--0---------x-------------------------------------------------|
|------------------3-------------------------------------------------|

INTRO

G  A  E (+intro pattern) x2

G          A                 E (+intro pattern)
Im runnin', runnin' outta you                     x2

G                                A             
I can't take it no more, i can't break no more

G                                A             
I can't take it no more

VERSE
              E
Look what the wind
             B
Just blew in Again
 A                                 B
Whistling through the cracks in my door
             E                 B
I should've known, you would show up
         A                        B
When the cuts were not hurtin' no more

PRE CHORUS
             A
Welcome back baby
       B
Sit on Down
Sit on Down
       A                  B
Have a cup of what I have found
Dsus2
Since your love ain't been around

CHORUS
                  E
Baby, you've been gone
              B
This time too long
               A
I've run outta you
               E
I've run outta you

VERSE
           E
Last candlelight
              B
Flickered and died
  A                    B
Shining on time without you
             E    
Tell me how long, how long
        B
Can I go on?
                       A                    B
When you're just gonna do what you're gonna do.

PRE CHORUS
            A
Welcome back baby
      B
Sit on Down
Sit on Down
       A                   B
Have a Cup of what I have found.
Dsus2
Since your love ain't been around

CHORUS
                  E                  B
Baby, you've been gone this time too long
               A
I've run outta you.
               E
I've run outta you

SOLO

E  B  A  E   x2

BRIDGE

G
I don't need it.
E
It's no good for me.
G
I can't bleed it.
E
Veins gone empty
G
I'll repeat it.
E
It's no good for me.
B
It's no good.
No good.
No good.

CHORUS
                  E                  B
Baby, you've been gone this time too long
                 A
I've run outta you.
      E
Outta you.
                   E                 B
Baby, you've been gone this time too long
               A   
I've run outta you.
E
Hey. 

END

G          A                 E  (Intro pattern, but faster)
Im runnin', runnin' outta you
Добавлено: 20.09.2015
Другие материалы по этой песне:
  • Аккорды и текст

Страница создана 20.09.2015
http://primanota.ru/vintage-trouble/run-outta-you-chords.htm
Привет, Гость.
Предлагаем пройти революционный курс по гитаре.
Подарок от PrimaNota.Ru, забирай!