PrimaNota.ru - самый крупный в мире бесплатный архив песенных текстов, аккордов, табулатур и нот


Vintage Trouble - Nobody Told Me - таба, видео

Регистрация Запомнить меня
Войти через:  Facebook Google Twitter Vk Yandex Mail.ru

Vintage Trouble - Nobody Told Me - таба, видео

Печатать
Просмотров: 80
Уроки эстрадного вокала в Санкт-Петербурге
-------------------------------------------------------------------------------
                             NOBODY TOLD ME - Vintage Trouble
-------------------------------------------------------------------------------
Tabbed by: DST (AUT)

Tuning: Standard (E A D G B E)

===============================================================================


Intro and Verses (always let ring the chords and listen to original rythm):

E|------------------------7--4----------------------|
B|----2----2--3----5------5--5----7----7--6------6--|
G|----2----2--2----4------4--4----7----7--7------7--|     (repeat till Refrain)
D|----2----2--4----6--------------7----7--7------7--|
A|----0----0-------4------4--4----0----0------------|
E|--------------------------------------------------|

Ref Chords:
D         A
   NOBODY TOLD ME
D         A
   NOBODY TOLD ME
D         A
   NOBODY TOLD ME
    E                         A (=> start with Intro/Verse lick again)
HOW HEAVY THIS LIFE WAS GONNA BE
Добавлено: 20.09.2015
Вам также может быть интересно:
Другие материалы по этой песне:

Страница создана 20.09.2015
http://primanota.ru/vintage-trouble/nobody-told-me-chords.htm
Привет, Гость.
Предлагаем пройти революционный курс по гитаре.
Подарок от PrimaNota.Ru, забирай!